20170706

ANA VIDOVICH G MINOR SONATA GUITAR TAB (J. S. BACH)


Ana Vidovich plays Sonata No. 1 in G minor by J. S. Bach
The amazing part from 3:33 - 8:06 is transcribed.
Download the Guitar Pro 6 and PDF files below.



ANA VIDOVICH G MINOR SONATA GUITAR TAB

GP6 + PDF >>

Part 1

e-----------------------------------------------------------------------
B-------------------------------------------4---------------3-----------
G-------7.--7.--7.--7~--5-3-5---2.--3-------3-------2-------------------
D---------------------------------------5.--5.--5---5---3-1-3---0-------
A-----------------------------------------------------------------------
E-----------------------------------------------------------------------


e-------3-------3---3---1---1-------------------------------------------
B---4-------1-------------4-----3---4---------------------3.--3.--3-----
G-------------------3-------2-------0---------3-2-4h5---------0---------
D---1-------1-------0-------0-------------------------4-----------------
A-------------------------------------------3---0-----3-------1---------
E---------------------------------------3-------------------------------


e---------------------------6-------6---5---5---------------------------
B---3---1-------------------6-------------8---7-8---7---------8---------
G---------3-5---2.--3-------7-------5---------------5-8-7-5-------------
D---2-------4-------5---3-------0-------------------0-------8---7-5-----
A---0-------5-------------6-8-------6-----------------------------------
E-------------------3---------------------------------------------------



e-------------5-----------4-3-----------------3-----------3-1-----------
B---------5-6---------3-6-----6-4-3-4-----3-4---------1-4-----4-3-1-----
G-------6-------7-5-4-------------------5-------5-3-2-------------------
D-----7-------------------------------5---------------------------------
A---5-------------------------------3-----------------------------------
E-------------------3-------------------------------1-------------------


e---------------------------------------------------------------3-------
B---3-----------3---------3-1-----------1-4-3p1---------3-----3---------
G-----2-3-----3-------0-3-----2-3-0---2---------3-2-3-------------5-----
D---------4-5-----3-2---------------4-----------------5---3-------------
A---1-------------------------------------------------------6-----------
E-----------------------------------------------------------------------


e---2-------6.--6.--6---5-3-5---5---4-3-4-2-3---1-----------------------
B---3-------3.--3.------------------------------0---4-3-3-1-1-----------
G-------------------5-------5---5---3-------3-------0-----------3-------
D-------0.--5.--5.----------3---3---3-------1---0-----3-3-1-1-0-0-------
A-------------------6-------------------------------3-------------3-----
E-----------------------------------------------------------------------


e-----------------------------------------------------------------------
B-------------------------4---------------------------------------------
G-----------------------5-------2---------------------------------------
D---6-4-4-5-5---------5-------5---4-------------------------------------
A---3---------------0-------5-------------------------------------------
E-------------6-5-3-----------------------------------------------------


Part 2

e-------10.--10.--10.--10~--8-6-8~--5-----------------------------------
B-----------------------------------------------------------------------
G-----------------------------------------------------------------------
D---0-------------------------------------------------------------------
A-----------------------------------------------------------------------
E---3-------------------------------------------------------------------




DOWNLOAD THIS TAB IN GUITAR PRO



  • click 'Free Download'
  • add your e-mail address
  • you will get an e-mail with your download links (in a few seconds)
  • download the Guitar Pro 6 tab + PDF for free
  • and that's all ...


Guitar Pro: a complete workshop for guitarists at an affordable price