20170727

THE BEATLES IN MY LIFE TAB (INSTRUMENTAL GUITAR COVER BY ROBERTO BARALLOBRE)


Roberto Barallobre plays a great instrumental guitar cover of In My Life by The Beatles.
Download the TAB below.



THE BEATLES IN MY LIFE INSTRUMENTAL TAB

GP5 + GP6 + PDF >>

Part 1

e-----------------------------------------------------------------------
B-----------------------------------------------------------------------
G---0-------0-2-5-4~------------------0-------0-2-5-4~------------------
D-----------------------------------------------------------------------
A-----------------------------------------------------------------------
E-----------------------------------------------------------------------


e-----------------------------------------------------------------------
B---------------------------8-------------------------------------------
G---------5---5---7---7/9-----9~----------------------------------------
D---5-5h7---------------------------------------------------------------
A-----------------------------------------------------------------------
E-----------------------------------------------------------------------


e-----------------------------------------------------------------------
B-------------------------------4/5-5~----------------------------------
G---7h9-7~---\-5-5~-----------------------------------------------------
D-----------------------6/7-5-------------------------------------------
A-----------------------------------------------------------------------
E-----------------------------------------------------------------------


e-----------------------------------------------------------------------
B---------------------------8-------------------------------------------
G---------5---5---7---7/9-----9-9-9~------------------------------------
D---5-5h7---------------------------------------------------------------
A-----------------------------------------------------------------------
E-----------------------------------------------------------------------


e-----------------------------------------------------------------------
B-------------------------------4/5-5~----------------------------------
G---7h9-7~---\-5-5~-----------------------------------------------------
D-----------------------6/7-5-------------------------------------------
A-----------------------------------------------------------------------
E-----------------------------------------------------------------------


e-----------------------------------------------------------------------
B-------4/5---------------4/5-------------------------------------------
G---5-7-----7-7-5-5-----5-----7---7~------------------------------------
D-------------------7-7-------------------------------------------------
A-----------------------------------------------------------------------
E-----------------------------------------------------------------------


e-----------------------------------------------------------------------
B---5.-5(6)(5)--------------------4/5-5~--------------------------------
G--------------7-5~-----------------------------------------------------
D-------------------------6/7-5-----------------------------------------
A-----------------------------------------------------------------------
E-----------------------------------------------------------------------




DOWNLOAD THIS TAB IN GUITAR PRO



  • click 'Free Download'
  • add your e-mail address
  • you will get an e-mail with your download links (in a few seconds)
  • download the Guitar Pro 6 tab + GP5 + PDF for free
  • and that's all ...


Guitar Pro: a complete workshop for guitarists at an affordable price