20170801

STEVE TERREBERRY CARELESS WHISPER TAB (SOLO)


Steve Terreberry plays an instrumental cover of Careless Whisper by George Michael.
There is a cool solo at 2:40 and it goes until about 3:30.
Download this guitar solo tab below.



STEVE TERREBERRY CARELESS WHISPER SOLO TAB

GP5 + GP6 + PDF >>

Solo 

e---20(22)-----20(22)-----20(22)~~~-----------------(22)(20)-17-18------
B-----------------------------------------------------------------------
G-----------------------------------------------------------------------
D-----------------------------------------------------------------------
A-----------------------------------------------------------------------
E-----------------------------------------------------------------------


e---20-18-17--17-18-20-18-17--17-18-20-18-17--17-18-20-18-17--17-18-----
B-----------20--------------20--------------20--------------20----------
G-----------------------------------------------------------------------
D-----------------------------------------------------------------------
A-----------------------------------------------------------------------
E-----------------------------------------------------------------------


e---20-18-17--17-18-20-18-17--17-18-20-18-17--17-18-20-18-17--17--------
B-----------20--------------20--------------20--------------20--20------
G-----------------------------------------------------------------------
D-----------------------------------------------------------------------
A-----------------------------------------------------------------------
E-----------------------------------------------------------------------

                                                     
e-----------------------------------------------------T-----------------
B---20(22)-------20(22)---(20)p18---18------20(22)---(32)---20p18-------
G--------------------------------19----19-------------------------------
D-----------------------------------------------------------------------
A-----------------------------------------------------------------------
E-----------------------------------------------------------------------


e-----------------------------------------------------------------------
B---20-20p18\15-18-18p15\13-15-15p13\10-13-13p10\8-10-10p8\6-8-8p6\3----
G-----------------------------------------------------------------------
D-----------------------------------------------------------------------
A-----------------------------------------------------------------------
E-----------------------------------------------------------------------

                                   T
e---------------------------8h10---13(15)-----------(13)---8h10---------
B---6-6p3---3~--------/10-----------------------------------------------
G---------5------/7-----------------------------------------------------
D-----------------------------------------------------------------------
A-----------------------------------------------------------------------
E-----------------------------------------------------------------------

    T       T      T      T       T      T      T       T      T
e---15p10p8-13p10p8-------15p10p8-13p10p8-------15p10p8-13p10p8---------
B------------------13p10p8---------------13p10p8---------------13p10p8--
G-----------------------------------------------------------------------
D-----------------------------------------------------------------------
A-----------------------------------------------------------------------
E-----------------------------------------------------------------------



DOWNLOAD THIS SOLO TAB IN GUITAR PRO



  • click 'Free Download'
  • add your e-mail address
  • you will get an e-mail with your download links (in a few seconds)
  • download the Guitar Pro 6 tab + GP5 + PDF for free
  • and that's all ...


Guitar Pro: a complete workshop for guitarists at an affordable price