20171008

EGOIST ALL ALONE WITH YOU TAB (FINGERSTYLE GUITAR COVER)

All Alone With You fingerstyle guitar cover played by heechan.
Original song by EGOIST. Dropped D tuning and CAPO on the 2nd fret.
Download the tab files below.



ALL ALONE WITH YOU FINGERSTYLE TAB

GP5 + GP6 + PDF >>

Part 1

e---5<17>-4<16>---------------------------------------------------------
B---------------5<17>-<12>----------------------------------------------
G----------------------------2<14>---1<13>---2<14>p1<13>----------------
D--------------------------------------------------------2<14>---<12>---
A-----------------------------------------------------------------------
D---0--------------------------------------2----------------------------


e---------0--------------------------<12>-------------------------------
B-------0-----------------------<12>------------------------------------
G---1-2-------------1<13>-2<14>-----------------------------------------
D-----------------------------------------------------------------------
A-----------------------------------------------------------------------
D---4-------------------------------------------------------------------


e-------------------------------------------------0---------------------
B---------------------------------------------0-----------------0-------
G---1-----2---------1-----2-----------------------------------2---2-----
D-----------------------2-----------6---6-7-----------------------------
A---------------------2---------------4---------------------------------
D---0---------------2---------------4-----------------------------------


e---------0---------------0---------0-----0---------------0-------------
B---0-----0-------0---2-------------0-----0-------0---2-----------------
G-----1-2-----2-2-----1-2-2-----2p1-----2-----2-------1-2-2---2-2-2-----
D-----------------------------------------------------------------------
A-----------------------------------------------------------------------
D---0---------------2---------------4-----------------------------------


e---------0---------------0---------------0---------------0-------------
B---------------------------------------------------------------0-------
G---1-------------1-------1---2---------2-------------1-2-----2---2-----
D-------4-----4-------4-----------4---2---------------------------------
A---------------------------------------------------0-------------------
D---0---------------2---------------4-----------------------------------


DOWNLOAD THIS TAB IN GUITAR PRO



  • click 'Free Download'
  • add your e-mail address
  • you will get an e-mail with your download links (in a few seconds)
  • download the Guitar Pro 6 tab + GP5 + PDF for free
  • and that's all ...


Guitar Pro: a complete workshop for guitarists at an affordable price