20171019

THE ELECTROMANIACS LAGRIMAS TAB (GUITAR PRO 6 + PDF)


The Electromaniacs - Lagrimas vintage instrumental guitar song.
Download the TAB below.



THE ELECTROMANIACS LAGRIMAS TAB

GP6 + PDF >>

Part 1

e-----------------------------------------------------------------------
B-----------------------------------------------------------------------
G-------------5-------4-------2---------------5-------4-------2---------
D---2-4-6-7-7---7-5-5---5-3-3---2---2-4-6-7-7---7-5-5---5-3-3---2-------
A-----------------------------------------------------------------------
E-----------------------------------------------------------------------
    x x x x x x x x x x x x x x x   x x x x x x x x x x x x x x x 


e--------12--12--12.--10--10h12--10--10h12p10--8~-----------------------
B---5-/--13------13.--12--12-----12--12-------10~-----------------------
G-----------------------------------------------------------------------
D-----------------------------------------------------------------------
A-----------------------------------------------------------------------
E-----------------------------------------------------------------------


e--------12--12--12--10--10h12--10--10h12p10--8~------------------------
B---5-/--13------13--12--12-----12--12-------10~------------------------
G-----------------------------------------------------------------------
D-----------------------------------------------------------------------
A-----------------------------------------------------------------------
E-----------------------------------------------------------------------


e--------5--5--5.-------------7.--8--8--10--10/12---10h12p10.-----------
B---5----5---------8---8h10-------8-------------------------------------
G--------5---------10-------------9-------------------------------------
D------------------9----------------------------------------------------
A-----------------------------------------------------------------------
E-----------------------------------------------------------------------


e---8-------------7-8-7h8p7.---5~---------------------------------------
B---10---10-------9------------5~---------------------------------------
G---9---------9.--7------------5~---------------------------------------
D-----------------------------------------------------------------------
A-----------------------------------------------------------------------
E-----------------------------------------------------------------------


e--------12--12--12.--10--10h12--10--10h12p10--8~-----------------------
B---5-/--13------13.--12--12-----12--12-------10~-----------------------
G-----------------------------------------------------------------------
D-----------------------------------------------------------------------
A-----------------------------------------------------------------------
E-----------------------------------------------------------------------


e--------12--12--12--10--10h12--10--10h12p10--8~------------------------
B---5-/--13------13--12--12-----12--12-------10~------------------------
G-----------------------------------------------------------------------
D-----------------------------------------------------------------------
A-----------------------------------------------------------------------
E-----------------------------------------------------------------------


e--------5--5--5.-------------7.--8--8--10--10/12---10/12\10.-----------
B---5----5---------8---8h10-------8-------------------------------------
G--------5---------10-------------9-----10--10/12---10/12\10.-----------
D------------------9----------------------------------------------------
A-----------------------------------------------------------------------
E-----------------------------------------------------------------------


e---8-------------7-8-7h8p7.---5~---------------------------------------
B---10---10-------9------------5~---------------------------------------
G---9---------9.--7------------5~---------------------------------------
D-----------------------------------------------------------------------
A-----------------------------------------------------------------------
E-----------------------------------------------------------------------


DOWNLOAD THIS TAB IN GUITAR PRO



  • click 'Free Download'
  • add your e-mail address
  • you will get an e-mail with your download links (in a few seconds)
  • download the Guitar Pro 6 tab + PDF for free
  • and that's all ...


Guitar Pro: a complete workshop for guitarists at an affordable price