20171115

PAULINHO MOSKA NOS BRACOS DE ISABEL TAB


Very nice bossa nova guitar playing in Nos Bracos De Isabel (Paulinho Moska)
Download the TAB below



PAULINHO MOSKA NOS BRACOS DE ISABEL TAB

GP5 + GP6 + PDF >>

Intro

e-----------------------------------------------------------------------
B---6---6-----6-----6---6-----6-----4---4-----4-----6---6-----6---------
G---7---7-----7-----7---7-----7-----5---5-----5-----7---7-----7---------
D---5---5-----5-----5---5-----5-----6---6-----6-----6---6-----6---------
A---6-------6-----6-6-------6-----x-------------------------------------
E-----------------------------------6-------6-----x-6-------6-----x-----


e-----------------------------------------------------------------------
B---6---6-----6-----6---6-----6-----4---4-----4-----6---6-----6---------
G---7---7-----7-----7---7-----7-----5---5-----5-----7---7-----7---------
D---5---5-----5-----5---5-----5-----6---6-----6-----6---6-----6---------
A---6-------6-----6-6-------6-----x-------------------------------------
E-----------------------------------6-------6-----x-6-------6-----x-----


Verse

e-----------------------------------------------------------------------
B---8---8-----8-----4---4-----4-----3---3-----3-----2---2-----2---------
G---7---7-----7-----4---4-----4-----3---3-----3-----3---3-----3---------
D---8---8-----8-----3---3-----3-----1---1-----1-----2---2-----2---------
A---6-------------------------------3-------3-----3-3-------3-----x-----
E-----------6-----x-3-------3-----3-------------------------------------



e-----------------------------------------------------------------------
B---1---1-----1-----9---9-----9-----9---9-----9-----6---6-----6---------
G---1---1-----1-----9---9-----9-----8---8-----8-----6-----6---6---------
D---1---1-----1-----8---8-----8-----10--10----10----6---------5---------
A-----------------------------------8-------8-----x---------------------
E---1-------1-----x-8-------8-----x-----------------6---6---6-----x-----


e-----------------------------------------------------------------------
B---4---4-----4-----4---4-----4-----3---3-----3-----9---9-----9---------
G---5---5-----5-----4---4-----4-----3---3-----3-----9---9-----9---------
D---5---5-----5-----3---3-----3-----3---3-----3-----8---8-----8---------
A-----------------------------------------------------------------------
E---4-------4-----x-4-------4-----x-3-------3-----x-9-------9-----x-----


e-----------------------------------------------------------------------
B---8---8-----8-----4---4-----8-----8---8-----8-----4---4-----8---------
G---8---------8-----5-----x---7-----7-----7---7-----5-----x---7---------
D---7-----7---7-----6---------6-----8---------8-----6---------6---------
A---8---8---8-----x-----------------6---6-------------------------------
E-------------------6---6---6-----x---------6-----x-6---6---6-----x-----





DOWNLOAD THIS TAB IN GUITAR PRO



  • click 'Free Download'
  • add your e-mail address
  • you will get an e-mail with your download links (in a few seconds)
  • download the Guitar Pro 6 tab + GP5 + PDF for free
  • and that's all ...


Guitar Pro: a complete workshop for guitarists at an affordable price