20120904

CALLING ELVIS - SOLO TAB

This is a short lesson how to play the first part of Dire Straits - Calling Elvis solo.
It is actually a fast B blues lick that really imroves your technical skills and makes the learning of the blues scale much more exciting.
TAB helps below.



DIRE STRAITS CALLING ELVIS TAB (SOLO START)


e-10p7---------7--------------------------------------------------------
B-------10--7-----10p7------7-----6/7-----------------------------------
G-----------------------10-----9-------10--9p7--------------------------
D-----------------------------------------------9-----------------------
A-----------------------------------------------------------------------
E-----------------------------------------------------------------------


e-----------------------------------------------------------------------B----------------------------------7'-----------------------------------
G-9p7-----7------------------------7'-----------------------------------
D------9-----9p7----------------7------9~-------------------------------
A-----------------9------7h8h9------------------------------------------
E--------------------10-------------------------------------------------