20121022

DESPERADO TAB (ANTONIO BANDERAS CANCION DEL MARIACHI TAB)

There is a short guitar lesson how to play Antonio Banderas - Cancion del Mariachi guitar parts (as played in the Desperado movie). See the intro part, the main riff and then you can also learn to play the best guitar solo in the world.
TAB helps below.


ANTONIO BANDERAS CANCION DEL MARIACHI TAB                                 Print PDF
(DESPERADO TAB) 


Intro

e-----------------------------------------------------------------------
B-----------------------------------------------------------------------
G-----------------------------------------------------------------------
D-----------------------------------------------------------------------
A-2h3-0h2---------------------------------------------------------------
E---------3h5-2h3-0-----------------------------------------------------


e----------------------------------0------------------------------------
B------0-0---0------1p0-0---0------1p0-0---0----------------------------
G--------0---0------0---0---0------0---0---0-----4---0---2--------------
D--------2---2------2---2---2------2---2---2-----5-\-2-/-4--------------
A---2-------------------------------------------------------------------
E-0---------------------------------------------------------------------


e---------------------------------------------------------------0-------
B--------------------------------------------------------------0--------
G-----2-2---2---4---2---5---5---4---4--2---2--0---0-----------0---------
D---4---4---4---5-\-4-/-7---7-----5------4------2----4---4---2----------
A-2----------------------------------------------------6----2-----------
E----------------------------------------------------------0------------



Solo 1

e-------7-7.---7-7.---8--7.---7------8--7.---7------5---5---5-----------
B-----8---8.---8-8.---10-8.---8------10-8.---8------7---7---7-----------
G---9---------------------------9.-------------9.-----------------------
D-9---------------------------------------------------------------------
A-----------------------------------------------------------------------
E-----------------------------------------------------------------------


e---5-5.---5-5.---7-5.---5-5-7.---5-5-\-2-3-----------------------------
B---7-7.---7-7.---8-7.---7-7-8.---7-7-\-4-5-----------------------------
G-8---------------------------------------------------------------------
D-----------------------------------------------------------------------
A-----------------------------------------------------------------------
E-----------------------------------------------------------------------


...after the first chorus...

e-----7-7.---7-7.---8--7.---7------8--7.---7------5---------------------
B---8---8.---8-8.---10-8.---8------10-8.---8------7---------------------
G-9---------------------------9.-------------9.-------------------------
D-----------------------------------------------------------------------
A-----------------------------------------------------------------------
E-----------------------------------------------------------------------


e-----5-5.---5-5-5h7---5-5.---5.---7-5.---5-\-2-3-----------------------
B---7---7.---7-7-7/8---7-7.---7.---8-7.---7-\-4-5-----------------------
G-8---------------------------------------------------------------------
D-----------------------------------------------------------------------
A-----------------------------------------------------------------------
E-----------------------------------------------------------------------



The big solo!!!

e-7-----7-12-7---7---7--11-7----7---7--11-7----7---7--------------------
B-----8--------8---0---------10---0---------10---0----------------------
G-----------------------------------------------------------------------
D-----------------------------------------------------------------------
A-----------------------------------------------------------------------
E-----------------------------------------------------------------------


e-12-7---7---7--12-7---7---7--11-7----7---11---7------------------------
B------8---0---------8---0---------10---0---10---0----------------------
G-----------------------------------------------------------------------
D-----------------------------------------------------------------------
A-----------------------------------------------------------------------
E-----------------------------------------------------------------------


e---7---12---7---12---7---12----7-10-7-10--8--8--7-7--5-5--3-3--2-2-----
B-8---0----8---0----8---0-----8-------------10----8----7----5----3------
G-----------------------------------------------------------------------
D-----------------------------------------------------------------------
A-----------------------------------------------------------------------
E-----------------------------------------------------------------------


e-0-0-------------------------------------------------------------------
B--1---3-0-1-0------0---0--1p0------------------------------------------
G---------------------2-------2p0----2p0--------------------------------
D--------------------------------4-2----4-2p0---------------------------
A--------------------------------------------3-2~-----------------------
E-----------------------------------------------------------------------


e-------------2--------------0-2---3------------------------------------
B-0---0---4-5--------0---0----------------------------------------------
G-----------------------------------------------------------------------
D-----------------------------------------------------------------------
A-----------------------------------------------------------------------
E-----------------------------------------------------------------------


e-------------2-----7.---5-3---2-0--------------------------------------
B-0---0---4-5-----0-8.---7-5-----0--------------------------------------
G-----------------------------------------------------------------------
D-----------------------------------------------------------------------
A-----------------------------------------------------------------------
E-----------------------------------------------------------------------




SEE ALSO

MARIACHI SUITE TAB by Los Lobos