20121128

PIRATES OF THE CARIBBEAN THEME SONG TAB (ACOUSTIC COVER)

This is a cool guitar cover of the Pirates of the Caribbean theme song by HEMO.
Congratulations Hemo, it's a really good job now with over 19 million views on YouTube and a lot of you claimed for TAB so we decided to create it. Hope you'll like it.


PIRATES OF THE CARIBBEAN THEME TAB                                  Printable tab here

CONTACT US to purchase the GUITAR PRO TAB (4$)

e-----------------------------------------------------------------------
H-----------------------------------------------------------------------
G----------------------------------------------------7------------------
D----------------------------------------------------x------------------
A-5---5-5---5-5---5-5-5-5---5---5-5---5-5---5-5-5-5--5------------------
E-----------------------------------------------------------------------
  x   x x   x x   x x x x   x   x x   x x   x x x x

e-----------------------------------------------------------------------
H----------------5-6---6---6-8-5---5------------------------------------
G----5-7---7---7-----------------------7-5-5h7--------------------------
D-/7--------------------------------------------------------------------
A-----------------------------------------------------------------------
E-----------------------------------------------------------------------


e-----------------------------------------------------------------------
H---------------5-6---6---6-8-5---5-------------------------------------
G---5-7---7---7-----------------------7-5-7-----------------------------
D-7---------------------------------------------------------------------
A-----------------------------------------------------------------------
E-----------------------------------------------------------------------


e---------------------------5-6---6---5-------5-------------------------
H---------------6-8---8---8---------------8-----------------------------
G---5-7---7---7-----------------------------------7---------------------
D-7---------------------------------------------------------------------
A-----------------------------------------------------------------------
E-----------------------------------------------------------------------


e-----------------5-----------------------------------------------------
H---5-6---6---8---------------6-5---5---6---5---------------------------
G-7-----------------7-------7-------------7-----------------------------
D-----------------------------------------------------------------------
A-----------------------------------------------------------------------
E-----------------------------------------------------------------------


e-----------------------------------------------------------------------
H---------------5-6---6---6-8-5---5-------------------------------------
G---5-7---7---7-----------------------7-5-5h7---------------------------
D-7---------------------------------------------------------------------
A-----------------------------------------------------------------------
E-----------------------------------------------------------------------


e-----------------------------------------------------------------------
H---------------5-6---6---6-8-5---5-------------------------------------
G---5-7---7---7-----------------------7-5-7-----------------------------
D-7---------------------------------------------------------------------
A-----------------------------------------------------------------------
E-----------------------------------------------------------------------


e---------------------------5-6---6---5-------5-------------------------
H---------------6-8---8---8---------------8-----------------------------
G---5-7---7---7-----------------------------------7---------------------
D-7---------------------------------------------------------------------
A-----------------------------------------------------------------------
E-----------------------------------------------------------------------


e-----------------5-----------------------------------------------5\----
H---5-6---6---8---------------6-5---5--------------/5---6---6---8-------
G-7-----------------7-------7-----------7-5-7---7-----------------------
D-----------------------------------------------------------------------
A-----------------------------------------------------------------------
E-----------------------------------------------------------------------


e-1------------------6--------------------------------------------------
H---3------------------------6------------------------------------------
G-----2------------------------7-------------------------7------10------
D--------------------------------8\--------------/7---------------------
A-----------------------------------------------------------------------
E-----------------------------------------------------------------------


e-----------------------------------------------------------------------
H-10---10---10---11-10.---------8---8---8---8-10.-----------------------
G-10---10---10------------------9---9---9-------------------------------
D-----------------------------------------------------------------------
A-----------------------------------------------------------------------
E-----------------------------------------------------------------------


e-----------------------------------------------------------------------
H-10---10---10---11-10.---------6/8---6---------------------------------
G-10---10---10------------------7/9---7---9---7-------------------------
D-----------------------------------------------------------------------
A-----------------------------------------------------------------------
E-----------------------------------------------------------------------


e-----------------------------------------------------------------------
H----------8-10---8-----------------8---10---8--------------------------
G-7-9-10--------------10---9---10---------------------------------------
D-----------------------------------------------------------------------
A-----------------------------------------------------------------------
E-----------------------------------------------------------------------


e-----------------------------------------------------------------------
H----8-10---8h10p8------------------------------------------------------
G-10--------------10---9---10---9---7------9-5---7----------------------
D-----------------------------------------------------------------------
A-----------------------------------------------------------------------
E-----------------------------------------------------------------------


e-----------------------------------------------------------------------
H-----------------8--------8---10---8-----------------------------------
G-7-9-10---9-10-------10----------------10---7--------------------------
D-----------------------------------------------------------------------
A-----------------------------------------------------------------------
E-----------------------------------------------------------------------


e-----------------------------------------------------------------------
H----------8---10---10/11-------8--------8------------------------------
G-7-9-10--------------------7-------10-----9---7---9-5------------------
D-----------------------------------------------------------------------
A-----------------------------------------------------------------------
E-----------------------------------------------------------------------


e-----------------------------------------------------------------------
H-10~~--11~~--10---10---10---10-8~~-----8~~--6~~---5---6---5------------
G-------------10---10------------------------7~~---5-----------7--------
D-----------------------------------------------------------------------
A-----------------------------------------------------------------------
E-----------------------------------------------------------------------


e-----------------------------------------------------------------------
H-10~~--11~~--10---10---10---10-8~~-----8~~--6~~---5---6---5------------
G-------------10---10------------------------------------------7--------
D-----------------------------------------------------------------------
A-----------------------------------------------------------------------
E-----------------------------------------------------------------------


e---------------------------------------------------8-------------------
H--------10--------------11---------------10---10-------10-8------------
G---7-10------------7-10-------------7-10-------------------------------
D-7---------------7----------------7------------------------------------
A-----------------------------------------------------------------------
E-----------------------------------------------------------------------


e-----------------------------------------------------------------------
H-8~~---6~~---5---6---5-------------------------------------------------
G-9~~---7~~---5-----------7---------------------------------------------
D-----------------------------------------------------------------------
A-----------------------------------------------------------------------
E-----------------------------------------------------------------------


e---------------------------------------------------8-------------------
H--------10--------------11---------------10---10-------10-8------------
G---7-10------------7-10-------------7-10-------------------------------
D-7---------------7----------------7------------------------------------
A-----------------------------------------------------------------------
E-----------------------------------------------------------------------


e-----------------------------------------------------------------------
H-8~~---6~~---5---6---5-------------------------------------------------
G-9~~---7~~---5-----------7~~~~~~~~~~~~~~~~~~---------------------------
D-----------------------------------------------------------------------
A-----------------------------------------------------------------------
E-----------------------------------------------------------------------




Background guitar chords ...


Dm / Bb / C / Dm /
Bb / F  / C / Dm /
Dm / Gm / Am / Dm /
Bb / Dm / A7 / A7 /


Dm / Bb / C / Dm /
Bb / F  / C / Dm /
Dm / Gm / Am / Dm /
Bb / Dm / A7 / Dm C / Bb / A / A /
Gm / Gm / A7 / A7 /


Dm / Dm / C / Dm /
Dm / Dm / C / Dm /


Dm' / C' / F / Bb' /
F / Am' / Dm' / Dm' /
Dm' / C' / F / Bb' /
Gm / Gm / Am / Am /


Dm / Bb / F' / C'' /
Gm / Am / Am / Dm /
Dm / Bb / F' / C'' /
Gm / Am / Am / Dm /


Dm / Bb / F' / C'' /
Gm / Am / Am / Dm /
Dm / Bb / F' / C'' /
Gm / Am / Am / Dm /



   Dm    Bb     C     F    Gm     Am    A7    A

e---5-----6-----------1-----3-----5-----5-------------------------------
B---6-----6-----5-----1-----3-----5-----5-----2-------------------------
G---7-----7-----5-----2-----3-----5-----6-----2-------------------------
D---7-----8-----5-----3-----5-----7-----5-----2-------------------------
A---5-----8-----3-----3-----5-----7-----7-----0-------------------------
E---------6-----------1-----3-----5-----5-------------------------------



   Dm'   Bb'    C'   Am'    F'     C''

e---1-----1-----0-----0-------------8-----------------------------------
B---3-----3-----1-----1-----10------8-----------------------------------
G---2-----3-----0-----2-----10------9-----------------------------------
D---0-----3-----2-----2-----10------10----------------------------------
A---------1-----3-----0-----8-------10----------------------------------
E-----------------------------------8-----------------------------------



Are you satisfied with this guitar tab? Send your idea which song or guitar riff should be the next for tabbing by making a TAB REQUEST HERE
    

SEE ALSO    

THE LORD OF THE RINGS THEME TAB by MrDreadSoul

 

IN FLAMES ACOUSTIC MEDLEY TAB by Hemo



THE PINK PANTHER THEME TAB by Hemo



MORE ON GUITAR TABS A-Z