20121128

PIRATES OF THE CARIBBEAN THEME SONG TAB (HEMO)


Pirates of the Caribbean theme song acoustic guitar cover played by HEMO
It's in standard tuning and there is a rhythm guitar line the background
Download the TAB under the video



PIRATES OF THE CARIBBEAN THEME ACOUSTIC TAB

GP5 + GP6 + PDF >>

e-----------------------------------------------------------------------
B-----------------------------------------------------------------------
G----------------------------------------------------7------------------
D----------------------------------------------------x------------------
A-5---5-5---5-5---5-5-5-5---5---5-5---5-5---5-5-5-5--5------------------
E-----------------------------------------------------------------------
  x   x x   x x   x x x x   x   x x   x x   x x x x

e-----------------------------------------------------------------------
B----------------5-6---6---6-8-5---5------------------------------------
G----5-7---7---7-----------------------7-5-5h7--------------------------
D-/7--------------------------------------------------------------------
A-----------------------------------------------------------------------
E-----------------------------------------------------------------------


e-----------------------------------------------------------------------
B---------------5-6---6---6-8-5---5-------------------------------------
G---5-7---7---7-----------------------7-5-7-----------------------------
D-7---------------------------------------------------------------------
A-----------------------------------------------------------------------
E-----------------------------------------------------------------------



e---------------------------5-6---6---5-------5-------------------------
B---------------6-8---8---8---------------8-----------------------------
G---5-7---7---7-----------------------------------7---------------------
D-7---------------------------------------------------------------------
A-----------------------------------------------------------------------
E-----------------------------------------------------------------------


e-----------------5-----------------------------------------------------
B---5-6---6---8---------------6-5---5---6---5---------------------------
G-7-----------------7-------7-------------7-----------------------------
D-----------------------------------------------------------------------
A-----------------------------------------------------------------------
E-----------------------------------------------------------------------


e-----------------------------------------------------------------------
B---------------5-6---6---6-8-5---5-------------------------------------
G---5-7---7---7-----------------------7-5-5h7---------------------------
D-7---------------------------------------------------------------------
A-----------------------------------------------------------------------
E-----------------------------------------------------------------------


e-----------------------------------------------------------------------
B---------------5-6---6---6-8-5---5-------------------------------------
G---5-7---7---7-----------------------7-5-7-----------------------------
D-7---------------------------------------------------------------------
A-----------------------------------------------------------------------
E-----------------------------------------------------------------------


e---------------------------5-6---6---5-------5-------------------------
B---------------6-8---8---8---------------8-----------------------------
G---5-7---7---7-----------------------------------7---------------------
D-7---------------------------------------------------------------------
A-----------------------------------------------------------------------
E-----------------------------------------------------------------------


e-----------------5-----------------------------------------------5\----
B---5-6---6---8---------------6-5---5--------------/5---6---6---8-------
G-7-----------------7-------7-----------7-5-7---7-----------------------
D-----------------------------------------------------------------------
A-----------------------------------------------------------------------
E-----------------------------------------------------------------------


e-1------------------6--------------------------------------------------
B---3------------------------6------------------------------------------
G-----2------------------------7-------------------------7------10------
D--------------------------------8\--------------/7---------------------
A-----------------------------------------------------------------------
E-----------------------------------------------------------------------

 etc ...