20121217

METALLICA NOTHING ELSE MATTERS SOLO TAB


Metallica - Nothing Else Matters guitar solo cover.
Use heavy distortion and light strings.
See the TAB below.



METALLICA NOTHING ELSE MATTERS SOLO TAB


e-----------------------------------------------------------------------
B-15--------------------------------------------------------------------
G-14(16)-----14(16)(14)-12~------14-12-11h12p11----11-------------------
D-----------------------------------------------12----12/14~------------
A-----------------------------------------------------------------------
E-----------------------------------------------------------------------


e--------------------12-----------12------------------------------------
B-----------------12-----------12----15p12----12------------------------
G-12-14-12-14(16)-------14(16)-------------15----15-14-12(14)(12)-------
D-----------------------------------------------------------------14----
A-----------------------------------------------------------------------
E-----------------------------------------------------------------------


e----------------------/15---14--------15---14--------------------------
B-14.--14-13----------------------12------------------------------------
G-14.--14-13-12~~~\-----------------------------------------------------
D-----------------------------------------------------------------------
A-----------------------------------------------------------------------
E-----------------------------------------------------------------------



e-/17---15-14h15p14\12----15-14-----------------------------------------

B----------------------12-------12~~-------------15---------------------
G---------------------------------------12-14-12-14(16)(14)p12----12----
D--------------------------------------------------------------14-------
A-----------------------------------------------------------------------
E-----------------------------------------------------------------------


e-----------12----------------------------------------------------------
B--------12------15-15(17)---(15)p12-15(17)-----------------------------
G-14(16)----------------------------------------------------------------
D-----------------------------------------------------------------------
A-----------------------------------------------------------------------
E-----------------------------------------------------------------------


e-----------------------------------------------------------------------
B-12h15p12-------------\7----\5h7p5-------------------------------------
G-----------------------------------------------------------------------
D-----------------------------------------------------------------------
A-----------------------------------------------------------------------
E-----------------------------------------------------------------------