20121217

METALLICA NOTHING ELSE MATTERS SOLO TAB


Metallica - Nothing Else Matters guitar solo starts around 4:55 in the original song
It's in standard tuning and the 2nd guitar plays power chords
Download the TAB under the video



NOTHING ELSE MATTERS SOLO TAB

GP5 + GP6 + PDF >>

e-----------------------------------------------------------------------
B---15------------------------------x-----------------------------------
G---14(16)-----14(16)(14)-12~-------x-12\11h12p11----11-----------------
D-------------------------------------------------12----12/14~----------
A-----------------------------------------------------------------------
E-----------------------------------------------------------------------


e----------------------12-----------12----------------------------------
B-------------------12-----------12----15p12----12----------------------
G---12-14-12-14(16)-------14(16)-------------15----15p14----------------
D-----------------------------------------------------------------------
A-----------------------------------------------------------------------
E-----------------------------------------------------------------------


e-----------------------------------------------------------------------
B--------------14.--14-13-----------------------------------------------
G---12h14p12---14.--14-13-12~--\----------------------------------------
D-----------14----------------------------------------------------------
A-----------------------------------------------------------------------
E-----------------------------------------------------------------------



e---/15---14~-------15---14~---/17---15.-14h15p14\12----15-14-----------
B--------------12------------------------------------12-------12~-------
G-----------------------------------------------------------------------
D-----------------------------------------------------------------------
A-----------------------------------------------------------------------
E-----------------------------------------------------------------------


e------------------------------------------12---------------------------
B------------15-------------------------12------15-15(17)---(15)p12-----
G---12-14-12-14(16)(14)p12----12-14(16)---------------------------------
D--------------------------14-------------------------------------------
A-----------------------------------------------------------------------
E-----------------------------------------------------------------------


e-----------------------------------------------------------------------
B---15(17)------------------(15)-p12h15p12~------------\7---\5h7p5------
G-----------------------------------------------------------------------
D-----------------------------------------------------------------------
A-----------------------------------------------------------------------
E-----------------------------------------------------------------------






DOWNLOAD THIS SOLO TAB IN GUITAR PRO



  • click 'Free Download'
  • add your e-mail address
  • you will get an e-mail with your download links (in a few seconds)
  • download the Guitar Pro 6 tab + GP5 + PDF for free
  • and that's all ...


Guitar Pro: a complete workshop for guitarists at an affordable price