20121212

WHILE MY GUITAR GENTLY WEEPS SOLO TAB

There is a guitar solo played by Goerge Harrison in While My Guitar Gently Weeps.
Fortunately our friend, jun626 shows us clearly how to play it.
Clear video, correct playing and an excellent sound with the Gibson Les Paul.
If the video is too fast for learning just use the TAB below.



WHILE MY GUITAR GENTLY WEEPS SOLO TAB


e-----------------------------------------------------------------------
B----------------------13'--15(17)-13'----------------------------------
G-(17)(14)---12-14(17)------------------14~~~---12h14(17)--(17)~~~~-----
D-----------------------------------------------------------------------
A-----------------------------------------------------------------------
E-----------------------------------------------------------------------


e-----------------------------------------------------------------------
B-------------------------------------15(17)---15p13-15(17)~------------
G-12h14(17)--(17)~~~~-------12h14(17)-----------------------------------
D-----------------------------------------------------------------------
A-----------------------------------------------------------------------
E-----------------------------------------------------------------------


e-15--------------------15(17)-15(17)-15(17)-15(17)~~~~~~---------------
B------(17)(15)-15~~-13-------------------------------------------------
G-----------------------------------------------------------------------
D-----------------------------------------------------------------------
A-----------------------------------------------------------------------
E-----------------------------------------------------------------------



e-15(17)(15)---15(17)------15-12---------15-----------------------------
B--------------------------------15(17)-----(17)(15)---13---------------
G-----------------------------------------------------------------------
D-----------------------------------------------------------------------
A-----------------------------------------------------------------------
E-----------------------------------------------------------------------


e--------15-------------------------------------------------------------
B-15(17)----(17)(15)-13~~\-------(13)(10)-8-10(13)---10(13)-------------
G-----------------------------------------------------------------------
D-----------------------------------------------------------------------
A-----------------------------------------------------------------------
E-----------------------------------------------------------------------


e-------------------------------------------------------17--------------
B-----8-----------------------8h10-10/13-13/15-15/17-17-----------------
G-7h9---9-7\5-7~--5h7-5---7h9-------------------------------------------
D-----------------------5-----------------------------------------------
A-----------------------------------------------------------------------
E-----------------------------------------------------------------------


e-15h17-17-15-17~~~\\---------------------------------------------------
B-----------------------------------------------------------------------
G-----------------------------------------------------------------------
D-----------------------------------------------------------------------
A-----------------------------------------------------------------------
E-----------------------------------------------------------------------





2nd solo

e-----------------------------------------------------------------------
B-----------------------------------------------------------------------
G-7(9)~~~------7(9)~~~------7(9)~~~-------------------------------------
D-----------------------------------------------------------------------
A-----------------------------------------------------------------------
E-----------------------------------------------------------------------


e-----------------------------------------------------------------------
B-----------------------------------------------------------------------
G-7(9)~~~------7(9)~~~------7(9)~~~------7(9)~~~------------------------
D-----------------------------------------------------------------------
A-----------------------------------------------------------------------
E-----------------------------------------------------------------------


e-----------------------------------------------------------------------
B-----------------------------------------------------------------------
G-7(9)~~~------7(9)~~~------7(9)~~~------7(9)~~~------------------------
D-----------------------------------------------------------------------
A-----------------------------------------------------------------------
E-----------------------------------------------------------------------


e-----------------------------------------------------------------------
B----------------------------8-8(10)~~~------------------8(10)----------
G-7(9)~~~------7(9)~~~--------------------------------------------------
D-----------------------------------------------------------------------
A-----------------------------------------------------------------------
E-----------------------------------------------------------------------


e--------5-----5---8(10)-----8---5--------------------------------------
B----------5-----5-----------------5------------------------------------
G-7(9)-------------------------------7(9)(7)-5~~~-----------------------
D-----------------------------------------------------------------------
A-----------------------------------------------------------------------
E-----------------------------------------------------------------------


e-----------------------------------------------------------------------
B-----------------------------------------------------------------------
G-----5~~~-------------------5~-------///-------------------------------
D-5h7----------------------x--------------------------------------------
A-----------------------------------------------------------------------
E-----------------------------------------------------------------------


e-----------------------------------------------------------------------
B-13(15)~~~-------------------13(15)(13)-13(15)(13)-13(15)-----13~~~----
G-----------------------------------------------------------------------
D-----------------------------------------------------------------------
A-----------------------------------------------------------------------
E-----------------------------------------------------------------------


e-----------------------------------------------------------------------
B-10.-13p12-10.-10-10h13-13~~~------------------------------------------
G-----------------------------------------------------------------------
D-----------------------------------------------------------------------
A-----------------------------------------------------------------------
E-----------------------------------------------------------------------


e----------------------17----15-----------------------------------------
B-13~---13/15-15/17-17----17----15(17)(15)-13'--------------------------
G------------------------------------------------14~~~------------------
D-----------------------------------------------------------------------
A-----------------------------------------------------------------------
E-----------------------------------------------------------------------


e-----------------------------------------------------------------------
B-20(22)-----20-(22)~~~-----------------20(22)~~~-----------------------
G-----------------------------------------------------------------------
D-----------------------------------------------------------------------
A-----------------------------------------------------------------------
E-----------------------------------------------------------------------


e-----------------------------------------------------------------------
B-20(22).-20(22).-20(22)~~~---------------------------------------------
G-----------------------------------------------------------------------
D-----------------------------------------------------------------------
A-----------------------------------------------------------------------
E-----------------------------------------------------------------------


e-----------------------------------------------------------------------
B-20(22)~----20(22)---(20)-17~~~----------------------------------------
G-----------------------------------------------------------------------
D-----------------------------------------------------------------------
A-----------------------------------------------------------------------
E-----------------------------------------------------------------------


e-----------17--------------17-------------17---------------------------
B--------20----20-----------17----------17----20------------------------
G-19(21)----------19(21).------19(21)------------19(21)(19)-17h19-------
D-----------------------------------------------------------------17-19-
A-----------------------------------------------------------------------
E-----------------------------------------------------------------------


e-----------------------------------------------------------------------
B---------------------------------------------------------8-------------
G-17-------------2~~~------2/5~~~---------7-5-7(9)~~~-------7(9)(7)-5~--
D----19-\\\-------------------------------------------------------------
A-----------------------------------------------------------------------
E-----------------------------------------------------------------------


e-----------------------------------------------------------------------
B-------------------8---------------------------------------------------
G-7(9)---(7)---7(9)---7(9)(7)-5-7-7(9)~~~-------------------------------
D-----------------------------------------------------------------------
A-----------------------------------------------------------------------
E-----------------------------------------------------------------------