20121212

WHILE MY GUITAR GENTLY WEEPS SOLO TAB


While My Guitar Gently Weeps guitar solo cover played by "jun626"
Excellent sound and great playing with a Gibson Les Paul
Download the TAB under the video



WHILE MY GUITAR GENTLY WEEPS SOLO TAB


Solo 1

e-----------------------------------------------------------------------
B------------------------13'--15(17)-13'--------------------------------
G---(17)(14)---12-14(17)------------------14~~~---12h14(17)--(17)~~~----
D-----------------------------------------------------------------------
A-----------------------------------------------------------------------
E-----------------------------------------------------------------------


e-----------------------------------------------------------------------
B---------------------------------------15(17)---15p13-15(17)~----------
G---12h14(17)--(17)~~~~-------12h14(17)---------------------------------
D-----------------------------------------------------------------------
A-----------------------------------------------------------------------
E-----------------------------------------------------------------------


e---15--------------------15(17)-15(17)-15(17)-15(17)~~~----------------
B--------(17)(15)-15~~-13-----------------------------------------------
G-----------------------------------------------------------------------
D-----------------------------------------------------------------------
A-----------------------------------------------------------------------
E-----------------------------------------------------------------------



e---15(17)(15)---15(17)------15-12---------15---------------------------
B----------------------------------15(17)-----(17)(15)---13-------------
G-----------------------------------------------------------------------
D-----------------------------------------------------------------------
A-----------------------------------------------------------------------
E-----------------------------------------------------------------------


e----------15-----------------------------------------------------------
B---15(17)----(17)(15)-13~~\-------(13)(10)-8-10(13)---10(13)-----------
G-----------------------------------------------------------------------
D-----------------------------------------------------------------------
A-----------------------------------------------------------------------
E-----------------------------------------------------------------------


e---------------------------------------------------------17------------
B-------8-----------------------8h10-10/13-13/15-15/17-17---------------
G---7h9---9-7\5-7~--5h7-5---7h9-----------------------------------------
D-------------------------5---------------------------------------------
A-----------------------------------------------------------------------
E-----------------------------------------------------------------------


e---15h17-17-15-17~~~\\-------------------------------------------------
B-----------------------------------------------------------------------
G-----------------------------------------------------------------------
D-----------------------------------------------------------------------
A-----------------------------------------------------------------------
E-----------------------------------------------------------------------



Solo 2

e-----------------------------------------------------------------------
B-----------------------------------------------------------------------
G---7(9)~~~------7(9)~~~------7(9)~~~-----------------------------------
D-----------------------------------------------------------------------
A-----------------------------------------------------------------------
E-----------------------------------------------------------------------


e-----------------------------------------------------------------------
B-----------------------------------------------------------------------
G---7(9)~~~------7(9)~~~------7(9)~~~------7(9)~~~----------------------
D-----------------------------------------------------------------------
A-----------------------------------------------------------------------
E-----------------------------------------------------------------------