20130330

CARLOS SANTANA MOONFLOWER TAB AND LESSON(FLOR D'LUNA)

Moonflower (Flor d'Luna) is a classic song by Carlos Santana from 1977.
There are many backing tracks available to play along.  
TAB helps below.



CARLOS SANTANA MOONFLOWER TAB (FLOR D'LUNA)        

PDF >>

Main Riff

e-----------------------------------------------------------------------
B------------15~------13----------------15--13--------------------------
G------14.---------------15-14~-----------------15.--14----(15)(14)-12~-
D-12--------------------------------------------------------------------
A-----------------------------------------------------------------------
E-----------------------------------------------------------------------


e-----------------------------------------------------------------------
B------------------------------------------------13~------------15~-----
G------------12------------14~--------14---15.------------15-14---------
D-14---15.-----------15-14----------------------------------------------
A-----------------------------------------------------------------------
E-----------------------------------------------------------------------


e-----------------------------------------------------------------------
B-----------------------------------------------------------------------
G-12--14--14h15--14.--12--12h14-------12--12h14.--14p12-------12--------
D---------------------------------15----------------------15------------
A-----------------------------------------------------------------------
E-----------------------------------------------------------------------



e-----------------------------------------------------------------------
B-----------------------------------------------------------------------
G---------12------------------------------------------------------------
D-14--15-------15.--11---12~--------------------------------------------
A-----------------------------------------------------------------------
E-----------------------------------------------------------------------

Part 2

e----------------------------------------13---12------------------------
B------------13.---15~~~~~~---\--------------------15.---15(17)---------
G-14---15.--------------------------------------------------------------
D-----------------------------------------------------------------------
A-----------------------------------------------------------------------
E-----------------------------------------------------------------------


e-----------------------------------------------------------------------
B-13h15-13--------------------------------------------------------------
G------------------14(15)(14)-12~----------------12---14---14h15-14~~---
D----------------------------------------14--15-------------------------
A-----------------------------------------------------------------------
E-----------------------------------------------------------------------


e---------------------------------------15--13.--12---13-15.------------
B------------13.---15~~~~~~---\-----------------------------------------
G-14---15.--------------------------------------------------------------
D-----------------------------------------------------------------------
A-----------------------------------------------------------------------
E-----------------------------------------------------------------------


e-----------------------------------------------------------------------
B-15(17)(15)(17)---------13-13--------13h15-13h15-13--------------------
G--------------------------------14.----------------------12------------
D------------------------------------------------------------15-14------
A-----------------------------------------------------------------------
E-----------------------------------------------------------------------


e-----------------------------------------------------------------------
B-----------------------------------------------------------------------
G---------12------------------------------------------------------------
D-14--15-------15.--11---12~--------------------------------------------
A-----------------------------------------------------------------------
E-----------------------------------------------------------------------

Solo

e-----------------------------------------------------------------------
B-------------------------------------------15.-------------------------
G-14~------15.--14.--12~------14~--15-14~------------14.---12~----------
D-----------------------------------------------------------------------
A-----------------------------------------------------------------------
E-----------------------------------------------------------------------


e-----------------------------------------------------------------------
B-----------------------------------------------------------15.---------
G-15p12-15.---14~------15.--14.--12~---------15p12-15-14~---------------
D-----------------------------------------14----------------------------
A-----------------------------------------------------------------------
E-----------------------------------------------------------------------


e-----------------------------------------------------------------------
B-----------------------------------------------------------------------
G-13/14.--12~---------12-12-12-12-14------------------------------------
D------------------15----------------15~---12-15~---12.-----------------
A-----------------------------------------------------------------------
E-----------------------------------------------------------------------


e-----------------------------------------------------------------------
B----------------------------------------10.----------------------------
G--------------------------------9--10.---------------------------------
D----------------------------12-----------------------------------------
A-12\10--------10~------12.---------------------------------------------
E---------13.-----------------------------------------------------------


e-----10----------------12----------------13.-----12--------------------
B-10.------10.------10.------10.------10.-----10.------10.------10.-----
G-----------------------------------------------------------------------
D-----------------------------------------------------------------------
A-----------------------------------------------------------------------
E-----------------------------------------------------------------------


e-12(13)------12(13)------12(13)------12(13)------12(13)(12)-10---------
B---------------------------------------------------------------13(15)~-
G-----------------------------------------------------------------------
D-----------------------------------------------------------------------
A-----------------------------------------------------------------------
E-----------------------------------------------------------------------


e-10--------------------------------------------------------------------
B----13-10--------------------------------------------------------------
G----------12-10----12-10--------------10-12-12~---10-12-12~---10-12-12~
D----------------12-------12.-------------------------------------------
A-----------------------------------------------------------------------
E-----------------------------------------------------------------------


e-------------------------------------10--------------------------------
B----------------------------------------13p10--------------------------
G-10-12-12~---10-12-12~---10-12(14)------------13-12p10----12-10--------
D-------------------------------------------------------12-------12.----
A-----------------------------------------------------------------------
E-----------------------------------------------------------------------


e-13(15)---------13(15)------13(15)------13(15)------13(15)------13(15)-
B-----------------------------------------------------------------------
G-----------------------------------------------------------------------
D-----------------------------------------------------------------------
A-----------------------------------------------------------------------
E-----------------------------------------------------------------------


e-13(15)------13(15)(13)-10-------------10---------------------13-12.---
B---------------------------13(15)---------13-10----------9/10----------
G------------------------------------------------12-10------------------
D------------------------------------------------------12---------------
A-----------------------------------------------------------------------
E-----------------------------------------------------------------------


e----13---12------13p12p10-13.--13p12p10-13.--13p12p10-13.--13p12p10-13.
B-10--------------------------------------------------------------------
G-----------------------------------------------------------------------
D-----------------------------------------------------------------------
A-----------------------------------------------------------------------
E-----------------------------------------------------------------------


e-13p12p10-13-12h13p12p10-13-12h13p12p10-13-12h13p12p10-13-12h13p12p10--
B-----------------------------------------------------------------------
G-----------------------------------------------------------------------
D-----------------------------------------------------------------------
A-----------------------------------------------------------------------
E-----------------------------------------------------------------------


e-13-12h13p12p10-13-12h13p12p10-13-12h13p12p10-13-12h13p12p10-13--12--10
B-----------------------------------------------------------------------
G-----------------------------------------------------------------------
D-----------------------------------------------------------------------
A-----------------------------------------------------------------------
E-----------------------------------------------------------------------


e-13--12--13--10--13--12.------/17~------17.---18.---18p17---15.--------
B-----------------------------------------------------------------------
G-----------------------------------------------------------------------
D-----------------------------------------------------------------------
A-----------------------------------------------------------------------
E-----------------------------------------------------------------------


e-20--18--17----17.---17---18-17\------10/12--12--12.---15.---------13.-
B-------------------------------------------------------------15.-------
G-----------------------------------------------------------------------
D-----------------------------------------------------------------------
A-----------------------------------------------------------------------
E-----------------------------------------------------------------------


e----12------------13-13p12p10-13.--13p12p10-13.--13p12p10-13.--13p12p10
B-14----12-15.----------------------------------------------------------
G-----------------------------------------------------------------------
D-----------------------------------------------------------------------
A-----------------------------------------------------------------------
E-----------------------------------------------------------------------


e-13-13p12p10--13-13p12p10--13-13p12p10--13-13p12p10--13-13p12p10-------
B-----------------------------------------------------------------------
G-----------------------------------------------------------------------
D-----------------------------------------------------------------------
A-----------------------------------------------------------------------
E-----------------------------------------------------------------------

After solo a short lick

e-----------------------------------------------------------------------
B-----------------------------------------------------------------------
G-----------------------------------------------------------------------
D---3---------5-------7--------8--------12---11---14---12.--------------
A-5-------7-------8-------10-------12-----------------------------------
E-----------------------------------------------------------------------

Part 2 (again but modified)

e----------------------------------------13---12h13p12------------------
B-----------13---15~~~~~~---\--------------------------15.---15(17)-----
G-14---15---------------------------------------------------------------
D-----------------------------------------------------------------------
A-----------------------------------------------------------------------
E-----------------------------------------------------------------------


e-----------------------------------------------------------------------
B----13----13h15-13-----------------------------------------------------
G-14----14------------14(15)(14)-12~-----------------12--14---14h15-14~~
D--------------------------------------------14--15---------------------
A-----------------------------------------------------------------------
E-----------------------------------------------------------------------


e---------------------------------------15--13.--12---13-15.------------
B------------13.---15~~~~~~---\-----------------------------------------
G-14---15.--------------------------------------------------------------
D-----------------------------------------------------------------------
A-----------------------------------------------------------------------
E-----------------------------------------------------------------------


e-----------------------------------------------------------------------
B-15(17)(15)(17)---------13-13--------13h15-13h15-13--------------------
G--------------------------------14.----------------------12h14p12------
D------------------------------------------------------------------15-14
A-----------------------------------------------------------------------
E-----------------------------------------------------------------------


e-----------------------------------------------------------------------
B-----------------------------------------------------------------------
G---------12------------------------------------------------------------
D-14--15-------15.--11---12~--------------------------------------------
A-----------------------------------------------------------------------
E-----------------------------------------------------------------------

Main Riff (again but modified)

e-----------------------------------------------------------------------
B------------15~------13------------------------------------------------
G------14.---------------15-14(15)(14)(15)(14)(15)(14)(15)(14)~~~-------
D-12--------------------------------------------------------------------
A-----------------------------------------------------------------------
E-----------------------------------------------------------------------


e-----------------------------------------------------------------------
B-15-13-----------------------------------------------------------------
G--------15.--14----(15)(14)-12~----------------------------------------
D-----------------------------------------------------------------------
A-----------------------------------------------------------------------
E-----------------------------------------------------------------------


e-----------------------------------------------------------------------
B------------------------------------------------13~------------15~-----
G------------12------------14~--------14---15.------------15-14---------
D-14---15.-----------15-14----------------------------------------------
A-----------------------------------------------------------------------
E-----------------------------------------------------------------------


e-----------------------------------------------------------------------
B-----------------------------------------------------------------------
G-12--14--14h15--14.--12--12h14-------12--12h14.--14p12-------12--------
D---------------------------------15----------------------15------------
A-----------------------------------------------------------------------
E-----------------------------------------------------------------------


e-----------------------------------------------------------------------
B-----------------------------------------------------------------------
G---------12------------------------------------------------------------
D-14--15-------15.--11---12~--------------------------------------------
A-----------------------------------------------------------------------
E-----------------------------------------------------------------------

The end......

e-----------------------------------------------------------------------
B-----------------------------------------------------------------------
G-12---12h15---15---14---12---12h14------12---12h14---14p12--------12---
D-----------------------------------15------------------------15--------
A-----------------------------------------------------------------------
E-----------------------------------------------------------------------


e-----------------------------------------------------------------------
B-----------------------------------------------------------------------
G-----------12----------------------------------------------------------
D-14---15--------15.---11---12~-----------------------------------------
A-----------------------------------------------------------------------
E-----------------------------------------------------------------------


e-----------------------------------------------------------------------
B-----------------------------------------------------------------------
G-12---12h15---15---14---12---12h14------12---12h14---14p12--------12---
D-----------------------------------15------------------------15--------
A-----------------------------------------------------------------------
E-----------------------------------------------------------------------


e-----------------------------------------------------------------------
B-----------------------------------------------------------------------
G-----------12----------------------------------------------------------
D-14---15--------15.---11---12~-----------------------------------------
A-----------------------------------------------------------------------
E-----------------------------------------------------------------------


... etc ...