20130330

CARLOS SANTANA MOONFLOWER TAB AND LESSON


Carlos Santana - Moonflower (Flor d'Luna) spanish guitar instrumental from 1977
The lead guitar parts are all shown in the video
Download the TAB below



SANTANA MOONFLOWER TAB


Main Riff

e-----------------------------------------------------------------------
B------------15~------13----------------15--13--------------------------
G------14.---------------15-14~-----------------15.--14----(15)(14)-12~-
D-12--------------------------------------------------------------------
A-----------------------------------------------------------------------
E-----------------------------------------------------------------------


e-----------------------------------------------------------------------
B------------------------------------------------13~------------15~-----
G------------12------------14~--------14---15.------------15-14---------
D-14---15.-----------15-14----------------------------------------------
A-----------------------------------------------------------------------
E-----------------------------------------------------------------------


e-----------------------------------------------------------------------
B-----------------------------------------------------------------------
G-12--14--14h15--14.--12--12h14-------12--12h14.--14p12-------12--------
D---------------------------------15----------------------15------------
A-----------------------------------------------------------------------
E-----------------------------------------------------------------------



e-----------------------------------------------------------------------
B-----------------------------------------------------------------------
G---------12------------------------------------------------------------
D-14--15-------15.--11---12~--------------------------------------------
A-----------------------------------------------------------------------
E-----------------------------------------------------------------------



Part 2

e----------------------------------------13---12------------------------
B------------13.---15~~~~~~---\--------------------15.---15(17)---------
G-14---15.--------------------------------------------------------------
D-----------------------------------------------------------------------
A-----------------------------------------------------------------------
E-----------------------------------------------------------------------


e-----------------------------------------------------------------------
B-13h15-13--------------------------------------------------------------
G------------------14(15)(14)-12~----------------12---14---14h15-14~~---
D----------------------------------------14--15-------------------------
A-----------------------------------------------------------------------
E-----------------------------------------------------------------------


e---------------------------------------15--13.--12---13-15.------------
B------------13.---15~~~~~~---\-----------------------------------------
G-14---15.--------------------------------------------------------------
D-----------------------------------------------------------------------
A-----------------------------------------------------------------------
E-----------------------------------------------------------------------


e-----------------------------------------------------------------------
B-15(17)(15)(17)---------13-13--------13h15-13h15-13--------------------
G--------------------------------14.----------------------12------------
D------------------------------------------------------------15-14------
A-----------------------------------------------------------------------
E-----------------------------------------------------------------------


e-----------------------------------------------------------------------
B-----------------------------------------------------------------------
G---------12------------------------------------------------------------
D-14--15-------15.--11---12~--------------------------------------------
A-----------------------------------------------------------------------
E-----------------------------------------------------------------------



Solo

e-----------------------------------------------------------------------
B-------------------------------------------15.-------------------------
G-14~------15.--14.--12~------14~--15-14~------------14.---12~----------
D-----------------------------------------------------------------------
A-----------------------------------------------------------------------
E-----------------------------------------------------------------------


e-----------------------------------------------------------------------
B-----------------------------------------------------------15.---------
G-15p12-15.---14~------15.--14.--12~---------15p12-15-14~---------------
D-----------------------------------------14----------------------------
A-----------------------------------------------------------------------
E-----------------------------------------------------------------------


e-----------------------------------------------------------------------
B-----------------------------------------------------------------------
G-13/14.--12~---------12-12-12-12-14------------------------------------
D------------------15----------------15~---12-15~---12.-----------------
A-----------------------------------------------------------------------
E-----------------------------------------------------------------------


e-----------------------------------------------------------------------
B----------------------------------------10.----------------------------
G--------------------------------9--10.---------------------------------
D----------------------------12-----------------------------------------
A-12\10--------10~------12.---------------------------------------------
E---------13.-----------------------------------------------------------