20130529

BESAME MUCHO TAB (COVER BY PATRICK KI)

Patrick Ki plays a great instrumental version of Besame Mucho on his DVD.
Download Patrick Ki's music or purchase the DVD here: http://www.patrickki.com
See the TAB under the video.



BESAME MUCHO TAB

PDF >>

Intro

e-----1.---0-----1.---0-----1.---0---------1.---0-----1.---0-----1.---0-
B-----3.---3-----3.---3-----3.---3---------3.---3-----3.---3-----3.---3-
G--------------2----------2-------------------------2----------2--------
D-0------------------------------------0--------------------------------
A-----------------------------------------------------------------------
E-----------------------------------------------------------------------


e-----1.---0-----1.---0-----1.---0---------1.---0---1.---1--------------
B-----3.---3-----3.---3-----3.---3---------3.---3--------3--------------
G--------------2----------2------------------------------2--------------
D-0------------------------------------0-----------------0--------------
A-----------------------------------------------------------------------
E-----------------------------------------------------------------------



Verse

e-----------------------------------------------------------------------
B-----3---3.---3.---1/3~------------3---5.---6.---8/10------8h10-8~-----
G-2-----------------------------2---------------------------------------
D-----------------------------------------------------------------------
A-----------------------------------------------------------------------
E-----------------------------------------------------------------------


e----------0---------3--3-3.---3/5---5---5.---6-------6.---8/9--10---12.
B-------6--------6--------------------------------8---------------------
G----7--------7------3--3-3.---3/5---5---5.-----------------------------
D-8---------------------------------------------------------------------
A-----------------------------------------------------------------------
E-----------------------------------------------------------------------


e-5~---------------5.------5-----5-------5-------5----------------------
B---------------6------8-----6-------5-------6--------------------------
G------------7----------------------------------------------------------
D-----------------------------------------------------------------------
A-----------------------------------------------------------------------
E-----------------------------------------------------------------------


e-8/10---10.---10.---10~---------------10------10-----------------------
B-----------------------------------8------8----------------------------
G--------------------------------9--------------------------------------
D-----------------------------7-----------------------------------------
A-----------------------------------------------------------------------
E-----------------------------------------------------------------------


e-10---8---6.---5--h6p5-------------------------0-------0-----0-------0-
B-7---------------------8.---6.---6/8~------6-------5-----6-------5-----
G-7-----------------------------------------7-------7-----7-------7-----
D-0---------------------------------------------------------------------
A-----------------------------------------------------------------------
E-----------------------------------------------------------------------


e-10---\---5-------5--h6p5----------------------------------------------
B-10---\-------6.----------6--------6---x---6---5---6---8---5~----------
G-10---\-----------------------7.---------------------------------------
D-----------------------------------------------------------------------
A-----------------------------------------------------------------------
E-----------------------------------------------------------------------


e-----0-----0-------------------------------0---------------------------
B-3-----2-----------2-------2-------2-----------------------------------
G---------------3-------2-------0-------2-------------------------------
D-----------------------------------------------------------------------
A-----------------------------------------------------------------------
E-----------------------------------------------------------------------


Verse 2

e---------------------------------------0-----0---1---------------------
B-3.---3.---1.---3~---------3--------3----3-----------10--10--10.---8~--
G---------------------------2-----2-------2-----------10----------------
D------------------------------0----------0------------8----------------
A-----------------------------------------------------10----------------
E-----------------------------------------------------------------------


e-----0-------0-----0-------0.------------------------------------------
B-6-------5-----6-------5-----------------------------------------------
G-7-------7-----7-------7-----------------------------------------------
D-8---------------------------------------------------------------------
A-----------------------------------------------------------------------
E-----------------------------------------------------------------------


e-3---3.---3.---5-\-3---5.---6---6--------9---10---12.------------------
B-----------------------------------------8--------------10~------------
G-3---3.---3.---5-\-3---5.---7---7--------9-----------------------------
D-----------------------------------------8-----------------------------
A-----------------------------------------------------------------------
E-----------------------------------------------------------------------


e------0-------0-----0-------0--------0-------0---10---10.---10---10----
B-10-------8-----6-------8-------10-------8-----------------------------
G-10-------9-----7-------9-------10-------9-----------------------------
D-----------------------------------------------------------------------
A-----------------------------------------------------------------------
E-----------------------------------------------------------------------


e-------------------------------8/10.---8.---6.---5--h6p5-----5---------
B-7-8-10.------10-8-7~------------------------------------8-------6/8~--
G---------------------------7-------------------------------------------
D-----------------------------------------------------------------------
A-----------------------------------------------------------------------
E-----------------------------------------------------------------------


e-----0-------0-----0----------0---10---\---5--------5h6p5--------------
B-6-------8-----6----------5-------10---\-------6.-----------6----------
G-7-------7-----7----------7-------10---\------------------------7.-----
D-8--------------------------------0------------------------------------
A-----------------------------------------------------------------------
E-----------------------------------------------------------------------


e----------------------------------------0---1---0h1p0---------0--------
B-6-----6-----5h6p5------5.---3--------3---------------3---2h3-----3----
G-------6-----------7--6-------------2----------------------------------
D-------5---------------------------------------------------------------
A-------x-----0---------------------------------------------------------
E-------5---------------------------------------------------------------


e-----------------------------------------------------------------------
B-----------------------------------------------------------------------
G-2p0-3---2~------------------------------------------------------------
D-----------------------------------------------------------------------
A-----------------------------------------------------------------------
E-----------------------------------------------------------------------


Chorus

e----------3-3.---3.-----3---1.---0--/3.---1------------1---1---0h1p0---
B---------------------------------------------------3-----------------3-
G-2.---3---------------3--------------------------2---------------------
D-----------------------------------------------------------------------
A-----------------------------------------------------------------------
E-----------------------------------------------------------------------


e-------------------------3-/-5-5~---------2---3---5.-------------------
B-3/5------------5---6.--------------------1-------4.-------------------
G---------------3--------------------------2-------5.-------------------
D--------------5---------------------------1-------4.-------------------
A-----------4-4---------------------------------------------------------
E-----------------------------------------------------------------------


e-5/6---6---6.---6---8---6---5---------------5h6p5---------5------------
B-5/6---6---6.---6-----------------------6---------8---6----------------
G-6/7---7---7.---7-------------------5----------------------------------
D-4/5---5---5.---5------------------------------------------------------
A--------------------------------5--------------------------------------
E-----------------------------------------------------------------------


e------------------------------------0-------0-------0-------0----------
B-8---------------8------6h8p6---5-------3-------2----------------------
G-------------7---7--------------------------------------2--------------
D---------6-------6-----------------------------------------------------
A-----------------7-----------------------------------------------------
E-----0-----------0-----------------------------------------------------


Verse 3

e------------------------------------0------0---1---5h6p5---------------
B-3---3.---1.---3--------3--------3-----3------------------8---6---6/8~-
G------------------------------2--------2-------------------------------
D---------------------------0-----------0-------------------------------
A-----------------------------------------------------------------------
E-----------------------------------------------------------------------


e-----6---5---------6.-----5--------------6---6-----8------8--------8.--
B-8-----8-----6-8--------8-----6------8-----8-----8-----10-----10-------
G-----------------------------------------------------------------------
D-----------------------------------------------------------------------
A-----------------------------------------------------------------------
E-----------------------------------------------------------------------


e-10--------10------12---9---6---5--------------------------------------
B------11-----------11---8---5---3--------------------------------------
G-------------------12---9---6---2--------------------------------------
D-------------------11---8---5---3--------------------------------------
A-----------------------------------------------------------------------
E-----------------------------------------------------------------------


e-10.---------------------------------------------8/10---10---10---10~--
B-------9\8---6.---5.---8.---6---5--------------------------------------
G------------------------------7---6-7~-------7-------------------------
D-----------------------------------------------------------------------
A-----------------------------------------------------------------------
E-----------------------------------------------------------------------


e----------10-----10-10-10---8---6---5--h6p5-----5----------------------
B-------8------------------------------------8-------6h8~---------------
G----9---------9--------------------------------------------------------
D-7---------------------------------------------------------------------
A-----------------------------------------------------------------------
E-----------------------------------------------------------------------


e-6.---5h6p5------------------------------10-----5--------5-------------
B------------8.---6.---5.-----------------10---------6.-------6---------
G--------------------------5/7~--------7--------------------------7.----
D-----------------------------------------------------------------------
A-----------------------------------------------------------------------
E-----------------------------------------------------------------------


e-----------------------------------------0---1-0h1p0-----------0-------
B-5/6-----5h6p5-5h6p5--3--2--5--3-----3-----------------3---2h3-----3---
G-----------------------------------2-----------------------------------
D-----------------------------------------------------------------------
A-----------------------------------------------------------------------
E-----------------------------------------------------------------------


e-----------------------------------------------------------------------
B-----------------------------------------------------------------------
G-2p0-2---3.---2--------------------------------------------------------
D-----------------------------------------------------------------------
A-----------------------------------------------------------------------
E-----------------------------------------------------------------------


Interlude

e-----1.---0-----1.---0-----1.---0---------1.---0-----1.---0-----1.---0-
B-----3.---3-----3.---3-----3.---3---------3.---3-----3.---3-----3.---3-
G--------------2----------2-------------------------2----------2--------
D-0------------------------------------0--------------------------------
A-----------------------------------------------------------------------
E-----------------------------------------------------------------------


e-----1.---0-----1.---0-----1.---0---------1.---0-----1.---0-----1.---0-
B-----3.---3-----3.---3-----3.---3---------3.---3-----3.---3-----3.---3-
G--------------3----------3-------------------------3----------3--------
D-0------------------------------------0--------------------------------
A-----------------------------------------------------------------------
E-----------------------------------------------------------------------


e-------------3-------------5-------------6-----------------------------
B---------3-------------3-----3---------------3-------10----------------
G-----3---------------3---------------3-------------------------9-------
D-5---------------4---------------3------------------------10-----------
A-------------------------------------------------9---------------------
E-----------------------------------------------------------------------


e-----0-------0-----0---------0-------0-------0-----0---------0---------
B-6-------6-----6---------6-------6-------6-----6---------6-------------
G-7-------6-----5-------5-6-------7-------6-----5-------5-6-------------
D-----------------------------------------------------------------------
A-----------------------------------------------------------------------
E-----------------------------------------------------------------------


e-----0-------0-----0---------0-------------3-----2-------2-------------
B-----3-------3-----3---------3---------5-------------------------------
G-----5-------5-----5---5-----5-------5---------------5-------5---------
D-5-------4-----5---------4-------0-------------0-----------------------
A-----------------------------------------------------------------------
E-----------------------------------------------------------------------


e-----------3-------------------------------3-----5.---3----------------
B-------3-------3-----3-------3---------3-------3----------3------------
G-----3---------------3-------3-------3------------------------3--------
D-5---------------4-------3-------2---------------2.--------------------
A-----------------------------------------------------------------------
E-----------------------------------------------------------------------


e-----0-------0------------------0-------0-----0---------0-------0------
B-6-------8-------8-------10-6-------5-----6---------8-------5----------
G-7-------9-------9h10-10----7-------6-----7-------7-9-------6----------
D-0---------------0-----------------------------------------------------
A------------------------------------0----------------------------------
E-----------------------------------------------------------------------


e-----0-------0-----0---------0-------0-------0-------------------------
B-6-------6-----6---------6-------6-------6-------6---\-----------------
G-7-------6-----5-------5-6-------7-------6-------7---\-----------------
D-----------------------------------------------------------------------
A-----------------------------------------------------------------------
E-----------------------------------------------------------------------


Chorus 2

e-4/6-----6---6---6---5---3---3/5-----5-5-5h6p5---------5---------------
B-6/8-----8---8---8---6---5---4/6-----6-6-------8---6-------8~----------
G-----------------------------------------------------------------------
D-----------------------------------------------------------------------
A-----------------------------------------------------------------------
E-----------------------------------------------------------------------


e-----5---6---5----------2---5------6-6.-----6-------6.---5.------------
B-8------------------4---1---4------6-6.-----6-----------------8.-------
G-6------------------5---2---5------7-7.-----7--------------------------
D-8------------------4---1---4------5------5-----5----------------------
A-7------------------5--------------------------------------------------
E-----------------------------------------------------------------------


e-5---------------5h6p5---------5---------------------------------------
B-------------6---------8---6-------8---------------8---6h8-------------
G---------5-------------------------------------7---7-------------------
D-----7-------------------------------------6-------6-------------------
A-5-------------------------------------------------7-------------------
E---------------------------------------0-----------0-------------------


e-----0-------0-------0-------------------------------------------------
B-5-------3-------2-----------------------------------------------------
G-------------------------3---2-----------------------------------------
D-----------------------------------------------------------------------
A-----------------------------------------------------------------------
E-----------------------------------------------------------------------


Verse 4

e-----------------------------------------------------------------------
B-3---3.---3.---2/3-----------------------------------------------------
G-------------------------------------------2h3p2-----------------------
D-----------------------------------2---3-----------5---3.---3h5~-------
A-5---5.---5.---4/5---------5-5-5---------------------------------------
E-----------------------------------------------------------------------


e-----------------------------------------------------------------------
B-----------------------------------------------------------------------
G-----------------------------------------------------------------------
D-5-----5-4-----3-----3-5-----------------------------------------------
A-----------------------------------------------------------------------
E-----------------------------------------------------------------------


e-----------------------------------------------------------------------
B-----------------------------------------------------------------------
G----------------------------------------------5/6---7---9--------------
D-5---3h5.---5.---5/7-----5.---7/8-8~------------------------7~---------
A-----------------------------------------------------------------------
E-----------------------------------------------------------------------


e-10.----------------------------------------------8/10---10.--10.--10~-
B-------9\8---6.---8---6---5---6---5---5--------------------------------
G--------------------7-----------6---6---7------7-----------------------
D-----------------------------------------------------------------------
A-----------------------------------------------------------------------
E-----------------------------------------------------------------------


e-----10-----10-----10-----------------10.---8---6---5h6p5-----5--------
B-7---8----7-8.------8p7-----------------------------------8-------6/8~-
G--------------------------8---7----------------------------------------
D-----------------------------------------------------------------------
A-----------------------------------------------------------------------
E-----------------------------------------------------------------------


e-------6---5---5-----3---3-----1---1-------10-\---5-------5h6p5--------
B-6/8-----8---6---------5---------3--------------------6-----------6----
G----------------------------------------------------------------------7
D-----------------------------------------------------------------------
A-----------------------------------------------------------------------
E-----------------------------------------------------------------------


e----------------------------------------0---1-0h1p0---------0----------
B-5/6~-----6---5h6p5---3---2---3-----3---------------3---2h3-----3------
G----------------------------------2------------------------------------
D-----------------------------------------------------------------------
A-----------------------------------------------------------------------
E-----------------------------------------------------------------------


e-----------------------------10-\---5-------5h6p5----------------------
B-----------------------------10-\-------6-----------6-------5h6~---6~--
G-2-0-2---3.---2.---2---------10-\-----------------------7--------------
D-----------------------------0-----------------------------------------
A-------------------5---------------------------------------------------
E-----------------------------------------------------------------------


e---------------------------------0---1-0h1p0-----0h1p0-----0h1p0-------
B-5h6-5h6p5-----3---2---3-----3---------------3---------3---------3-----
G---------------------------2-------------------------------------------
D-----------------------------------------------------------------------
A-----------------------------------------------------------------------
E-----------------------------------------------------------------------


e-0h1p0-----1-----------------------------------------------------------
B-------3---3-----------------------------------------------------------
G-----------2-----------------------------------------------------------
D-----------0-----------------------------------------------------------
A-----------------------------------------------------------------------
E-----------------------------------------------------------------------


The End

e-10-\---5-------5---------------------------------------------0--------
B-10-\-------6-----------6-------6-------5h6p5---3---2--------3---------
G-10-\-----------------------7-------------------------------2----------
D-0---------------------------------------------------------3-----------
A-----------------------------------------------------------------------
E-----------------------------------------------------------------------