20130529

BESAME MUCHO TAB (ACOUSTIC GUITAR SOLO TAB)


Besame Mucho acoustic guitar solo cover played by Patrick Ki
Amazing acoustic guitar instrumental played with a spanish guitar
Download the TAB under the video



BESAME MUCHO ACOUSTIC SOLO TAB

GP5 + GP6 + PDF >>

Intro

e-------1.--0-----1.--0-----1.--0-------1.--0-----1.--0-----1.--0-------
B-------3.--3-----3.--3-----3.--3-------3.--3-----3.--3-----3.--3-------
G---------------2---------2---------------------2---------2-------------
D---0-------------------------------0-----------------------------------
A-----------------------------------------------------------------------
E-----------------------------------------------------------------------


e-------1.--0-----1.--0-----1.--0-------1---0---1.--5-------------------
B-------3.--3-----3.--3-----3.--3-------3---3-------6-------------------
G---------------2---------2---------------2---------7-------------------
D---0-------------------------------0---------------0-------------------
A-----------------------------------------------------------------------
E-----------------------------------------------------------------------


Verse

e-----------------------------------------------------------------------
B-------3----3.---3.--1/3~------------------3----5----6.----------------
G---2-----------------------------------2-------------------------------
D-----------------------------------------------------------------------
A-----------------------------------------------------------------------
E-----------------------------------------------------------------------



e-----------------------------------------------------0-----------------
B---8/10~--------8h10-8~--------------------------6-----------6.--------
G---------------------------------------------7-----------7-------------
D-----------------------------------------8-----------------------------
A-----------------------------------------------------------------------
E-----------------------------------------------------------------------


e-------3---3---3.--3/5----5----5.---6---------6.---8/9----10----12.----
B-----------------------------------------8-----------------------------
G-------3---3---3.--3/5----5--------------------------------------------
D-----------------------------------------------------------------------
A-----------------------------------------------------------------------
E-----------------------------------------------------------------------


e---5~----------------------5-------5------5-------5-------5.-----------
B-----------------------6-------8-----6--------5-------6----------------
G-------------------7---------------------------------------------------
D-----------------------------------------------------------------------
A-----------------------------------------------------------------------
E-----------------------------------------------------------------------


e---8/10---10~---10~---10------------------10-------10.--10----8.---6.--
B--------------------------------------8--------8--------7--------------
G----------------------------------9---------------------7--------------
D------------------------------7-------------------------0--------------
A-----------------------------------------------------------------------
E-----------------------------------------------------------------------


e---5--h6p5----------------------------0-------0-----0---------0--------
B-----------8.--6.--6/8~-----------6-------5-----6---------5------------
G----------------------------------7-------7-----7-------7-7------------
D-----------------------------------------------------------------------
A-----------------------------------------------------------------------
E-----------------------------------------------------------------------


e---10---\---5-------5h6p5----------------------------------------------
B---10---\-------6.----------6-------5/6~---x---6---5----6----8---------
G---10---\-----------------------7.-------------------------------------
D---0-------------------------------------------------------------------
A-----------------------------------------------------------------------
E-----------------------------------------------------------------------


e-----------------------0------0-------------------------------0--------
B---5~------x-------3-----2------------2-------2-------2----------------
G----------------------------------3-------2-------0-------2------------
D-----------------------------------------------------------------------
A-----------------------------------------------------------------------
E-----------------------------------------------------------------------






DOWNLOAD THIS TAB IN GUITAR PRO



  • click 'Free Download'
  • add your e-mail address
  • you will get an e-mail with your download links (in a few seconds)
  • download the Guitar Pro 6 tab + GP5 + PDF for free
  • and that's all ...


Guitar Pro: a complete workshop for guitarists at an affordable price