20130624

DYLAN LEBLANC CHANGING OF THE SEASONS TAB


Dylan LeBlanc sings Changing Of The Seasons with a single acoustic guitar in a park.
He is playing a nice Gibson acoustic guitar and sings just awesome.
He is using D A D F# B E tuning. TAB helps below.



DYLAN LEBLANC CHANGING OF THE SEASONS TAB

GP5 + GP6 + PDF >>

Intro

e------------------0h2-------0------------------------------------------
B--0h2-----------------------------0---------------3---------5----------
F#-----------0---------0---------------------0---------0----------------
D------2-------2---------2-------------0-------0---------0-----0--------
A--0-------0-------0-------0--------------------------------------------
D------------------------------0---5-------5-------5-------5------------



e------------------5---------------5------------------------------------
B--7-----------------------------------------6\5---3---------3----------
F#-----------0---------------0-----------0---------------------0--------
D------0-------0-------0-------0-------0-------0-------0----------------
A-----------------------------------------------------------------------
D--0-------0-------0-------0-------0-------0-------0-------0------------



e------------------0h2-------0------------------------------------------
B--0h2-------2---------0-----------0---------------3---------5----------
F#-----0-------0---------0-------------------0---------0----------------
D--------2---------------------0-------0-------0---------0-----0--------
A--0-------0-----0---------0--------------------------------------------
D----------------------------------5-------5-------5-------5------------


e------------------5---------------5------------------------------------
B--7-----------------------------------------6\5---3--------------------
F#-----------0---------------0-----------0-------------------0----------
D------0-------0-------0-------0-------0-------0-------0-------0--------
A-----------------------------------------------------------------------
D--0-------0-------0-------0-------0-------0-------0-------0------------


Verse

e----------------2---------------2---------------2----------------------
B--------3---------------3---------------3---------------3--------------
F#---3-------3-------3-------3-------3-------3-------3-------3----------
D------0-------0-------0-------0-------0-------0-------0-------0--------
A-----------------------------------------------------------------------
D--0-------0-------0-------0-------0-------0-------0-------0------------




DOWNLOAD THE COMPLETE TAB HERE





  • click 'Buy Now' and send $6  (or 'Add to Cart' if you want to buy more tabs)
  • add your e-mail address
  • you will get a confirmation e-mail with your download links (in a few seconds)
  • download the full Guitar Pro 6 tab + GP5 + PDF
  • then start to learn the full song - that's all ...

IF YOU DIDN'T GET YOUR DOWNLOAD LINK, PLEASE CONTACT US HERE >>

SEND YOUR GUITAR TAB REQUEST HERE >>
MORE ON GUITAR TABS A-Z >>

Guitar Pro: a complete workshop for guitarists at an affordable price