20130619

IGOR PRESNYAKOV HERE WITHOUT YOU TAB (3 DOORS DOWN COVER)

Igor Presnyakov plays here a cool cover of 3 Doors Down - Here Without You.
This cover is one of his easier performances. Tuning: C# G# C# F G# C#
TAB helps below.



IGOR PRESNYAKOV HERE WITHOUT YOU TAB

PDF >>

Intro

C#---------0---------------0--------------------------------------------
G#-----------4---4-------4---4------------------------------------------
F--------0-----0-------0-----------------1---p0-------------------------
C#-----4-------------4-----------------0--------2-----------------------
G#-2---------------2-----------2p0---2----------0-----------------------
C#---------------------------------5------------------------------------


C#---0-------0-----0-----0-0h2---0--------------------------------------
G#-------4-------4-----4-----------2-------2h4--------------------------
F------------------------------------0---0------------------------------
C#-2--------------------------------------------------------------------
G#-0---------2-------2-----2-----------2--------------------------------
C#----------------------------------------------------------------------



C#-0-----0-------0-------0-------------------0---------------0----------
G#-----4-----4-------4-----5/7-0---2p0-0---0-------4-------4---4--------
F----3---------3-------3-------------------------0-------0--------------
C#-------------------------5/7-------------------------4----------------
G#-0-------0-------0-------------0-2---------2-------2-----------2p0----
C#----------------------------------------------------------------------


C#----------------------0-------0-----0-------0h2---0-------------------
G#----------------------4---4-------4-------4---------2-------2h4-------
F--------1---p0---------3-----3---0-------0-------------0---0-----------
C#-----0--------2-------------------------------------------------------
G#---2----------0-------0-------2-------2-----2-----------2-------------
C#-5--------------------------------------------------------------------


C#-0-----0-------0-------0-----------------0---------------0------------
G#-----4-----4-------4-----5/7-0---0h2-----------4-----2-----4----------
F----3---------3-------3-----------------0-----0-----0---0--------------
C#-------------------------5/7------------------------------------------
G#-0-------0-------0-------------2-2---------------2-----------2p0------
C#----------------------------------------------------------------------


C#-----------0-------------------0--------------------------------------
G#-------------------4-----4--------------------------------------------
F--------0-----------3---------3----------------------------------------
C#-----0-------2--------------------------------------------------------
G#---2---------0---------0----------------------------------------------
C#-5--------------------------------------------------------------------


Part 2

C#-----------------------0-------0---------0-------------0--------------
G#---------4-----4-----4-------4---------4---4---4---------5/7---0------
F--------0-----0-----0-------0---------3-------3-------3----------------
C#-----4---------------------------------------------2-----5/7----------
G#-2---------------2-------2-------0---------------0--------------------
C#----------------------------------------------------------------------


C#-------------------0-------0-----0---0-x---2--------------------------
G#---------4-4-----4-------4-------0---0-x---4------4---4~--0-----------
F--------0-------0-------0---------0---0-x---3------3-------------------
C#-----4---------------------------0---0-x------------------------------
G#-2---------2---------2------p0-----------0-0--------0-4~--0-----------
C#---------------------------------5------------------------------------


Part 3

C#-0-------2-----2/4---2---2---2/4-------------------------------0------
G#-0-----------------------------------------4-4-4---4---4-----4--------
F--0---------------------------------------3---3-3---3---3-3---------0--
C#-0-------2-----2/4---2---2---2/4---0----------------------------------
G#-0-----------------------------------0-------0-0-----------0-4--------
C#-0-----0-0---0-0-----0-0-0---0----------------------------------------


C#-0-------0---0-0h2---0---0---2p0---0-----0-0-0-0-2---2-----2h4p2p0----
G#-------0-0---0-0-----0-------0-----0-----0-0-0-0-4---4-----0----------
F------0---0---0-0-----0-------0---0-------0-0-0-0-3---3-----3----------
C#----------------------------------------------------------------------
G#-2-------------2-----------2-2-0-----------------0-------4-4----------
C#-----------------------------------5---5-5-5--------------------------


C#-0---0-0---2-2-2-2/4---2-----4h5-4h5p4p2p0----------------------------
G#-0---0-0--------------------------------------------------------------
F--0---0-0--------------------------------------------------------------
C#-0---0-0---2-2-2-2/4---2----------------------------------------------
G#-0---0----------------------------------------------------------------
C#-0---0-----0-0-0-0-----0---0------------------------------------------


C#-----------------------2-----2p0---0-------0-----0h2---0---0-0-0------
G#-------4-4-4---4-----4-------------------0-----0-0-----0---0-0-0------
F------3---3-3---3---3-------3-----------0-----0-------------0-0-0------
C#----------------------------------------------------------------------
G#-0---------------0-------4---------2-------2-----2---------------2p0--
C#----------------------------------------------------------------------


C#-0-------0-0-0-2---2p0-------0-0-0------------------------------------
G#-0-------0-0-0-4---4-----4---0-0-0------------------------------------
F--0-----0-0-0-0-3-------------0-0-0------------------------------------
C#----------------------------------------------------------------------
G#---------------0------------------------------------------------------
C#-5---5----------------------------------------------------------------


Part 4

C#-0-------0-0-0-------------0-0-0-0---------0-0-0---------0-0-0-0-0----
G#---4-----4-4-0-4~-----4~---4-4-4-4---------4-4-4-4-----4---4-4-4-4----
F------5---5-5--------0------0-0-0-0---------0-0-0-----3-----3-3-3-3----
C#---------------------------------------2------------------------------
G#-2-------------2~------------------0-------------0--------------------
C#----------------------------------------------------------------------


C#---------0---0---------0-0-0---------x--------------------------------
G#---------4---4-4-----4---4-4-----0---x-0.------4-----------------0-0--
F----------0---0-----0-----0-0-----0---x-0.------3-----------------0-0--
C#-----4-----------4---------------0---x-0.------2-----------------0-0--
G#-2-------------2-------------2p0-----x---------0----------------------
C#---------------------------------5---x-5.---0.-----x-x-x---16\--------


Part 5

C#-0-----------2---0-------------0-----0---------0----------------------
G#-----4-------------2-------2h4-----4-------4---4-----0-5/7-0-0--------
F----0-------0---------------------3-----------3-3-----------0-0--------
C#-----------------------------------------------2-----0-5/7------------
G#-2-----x-2---------------2-----0---------0----------------------------
C#---------------x-------x---------------x-----------x------------------


C#---------0---------------0-----------0-0-------------0---0---0-0------
G#---------4-----4---------4-----------0-0-----4-----4-4---4---4-4------
F----------0---------0-----0-----------0-0-----3-----3-3---3---3-3------
C#-----4---------------4---------------0-0-----2-----2-2---2---2-2------
G#-2-----------2---------------2p0-----------0-0-----0---0-0------------
C#---------x-----------------------5-------x-----------x----------------


C#-0-----0-----2---0---------------0-----0-----------0------------------
G#-----4-----------------0-0-0-2p0-----4---------4-----0---5/7-0-0------
F----0-------0-----------0-0-0-------3---------3---3-----------0-0------
C#-----------------------0-0-0---------------2-----------0-5/7----------
G#-2-------2-----------------0-----0-------x----------------------------
C#-------------------------x--------------------------------------------


C#-0-----------0----------0----------0---0-----2---2-2-2----------------
G#---0-2p0-0-----0---4~---0----------0---0-----4---4-4-4-4---0----------
F------------------0------0----------0---0-----3---3-3-3-----0----------
C#-----------------------------------0---0-------------------0----------
G#-2---------2-------2~-----2---p0-------------0---------4---0----------
C#-----------------------------------5-----x----------------------------


Part 6

C#-0---0---2---2-2/4---2---2---2/4-----------2-2---7-\-5---4---2p0------
G#-0---0---------------------------0-------4-4-4---0---0---0---0--------
F--0---0---------------------------------3---3-3---7-\-5---3---1p0------
C#-0-------2---2-2/4---2---2---2/4--------------------------------------
G#-0---------------------------------0-------x-----0--------------------
C#-0-----0-0-----0-----0-----0-0----------------------------------------


C#-0-------0---0-0h2-0-----0h2-----0-----0-0-----2---2-------2h4p2p0-0--
G#-------0-0---0-0---0-2---0-------0-----0-0-----4---4-------0-------0--
F------0---0---0-0---0---0-0-------0-----0-0-----3---3-------3-------0--
C#---------------------------------0-----0-0-------------------------0--
G#-2-------x-----2---2-----2---2p0---------------0---------4-4----------
C#---------------------------------5---5-5-----x---------x--------------


C#-0---------2---2-2/4-2---2---2/4-----------2-2-x-7-\-5---4---2p0------
G#-0-------------------------------0-------4-4-4-x-0---0---0---0--------
F--0-------------------------------------3---3-3-x-7-\-5---3---1p0-0----
C#-0---------2---2-2/4-2---2---2/4--------------------------------------
G#-0-----0---------------------------0-------------0--------------------
C#-0-------0-0-----0---0-0-0---0----------------------------------------


C#-0---0---0---x-0h2-0---0-0-0-0---0-------0-0-----2---2-2-2------------
G#-0---0---0---x-0---0---0-0-0-0-------4---4-4-----4---4-4-4------------
F--0-------0---x-0---0---0-0-0-0-----5---5-5-5-0---3---3-3-3-0----------
C#-----------------------0-0-0------------------------------------------
G#-2-------------2-----------------------------x-0-0-----------2--------
C#-------------------------------5-5------------------------------------


Part 7

C#-4---4---z-4-4-4---0-0---z-4-0-0-0---0---z-4-4-4-0-0-0---z-4-0-0------
G#-0---0-y---0-0-0-0-0-0-y---0-0-0-0---0-y---0-0-0-0-0-0-y---0-0-0------
F--0---0-----0-0-0-0-0-0-----0-0-0-0---0-----0-0-0-0-0-0-----0-0-0------
C#-4---4-----4-4-4-4-4-4-----4-0-0-0---0-----4-4-4-0-0-0-----4-0-0------
G#-2---2-----2-2-2-2-2-2-----2-----0---0-----0-0-0-0-0-0-----0----------
C#---------------------------------0---0-----0-0-0-0-0-0-----0----------


C#-0---0---z-0-0-0-0-0-0---z-0-0---0---0-0-0-0-4---4-4---4---------0--0-
G#-7---7-y---7-7-7-7-7-7-y---7-7---5---5-0-0-0-5---5-5---5-x-x-x-x-0--0-
F--7---7-----7-7-7-7-7-7-----7-7---5---5-0-0-0-0---0-0---0-x-x-x-x-0--0-
C#-0---0-----0-0-0-0-0-0-----0-0---0---0-0-0-0-0---0-0---0-x-x-x-x-0--0-
G#-0---0-----0-0-0-0-0-0-----0-0---x---x-0-0-0-x---x-x---x-x-x-x-x-0--0-
C#-7---7-----7-7-7-7-7-7-----7-7---5---5-0-0-0-5---5-5---5---------0--0-


C#-4---4---z-4-4-4---0-0---z---\---0---0---z-4-4-4-0-0-0---z-4-0-0------
G#-0---0-y---0-0-0-0-0-0-y-----\---0---0-y---0-0-0-0-0-0-y---0-0-0------
F--0---0-----0-0-0-0-0-0-------\---0---0-----0-0-0-0-0-0-----0-0-0------
C#-4---4-----4-4-4-4-4-4-------\---0---0-----4-4-4-0-0-0-----4-0-0------
G#-2---2-----2-2-2-2-2-2-------\---0---0-----0-0-0-0-0-0-----0----------
C#-----------------------------\---0---0-----0-0-0-0-0-0-----0----------


C#-0---0---z-0-0-2---2-2-2-2p0-0---0---0-0-0---0------0-0-x-0---0-------
G#-7---7-y---7-0-4---4-4-4-4---0---5---5-5-5---5------5-0-x-7---5-------
F--7---7-----7-0-3---3-3-3-3---0---5---5-5-5---5------5-0-x-7---5-------
C#-0---0-----0-0-0---0-0-0-0---0---0---0-0-0---0----------x-0---0-------
G#-0---0-----0---0---0-0-0-0---0---x---x-x-x-x-x------------0---x-------
C#-7---7-----7-----------------0---5---5-5-5---5------------7---5-------


C#-0-0-0-0-0---4---4-4-4-4-0-0-0----------------------------------------
G#-5-5-5-5p0---5---5-5-5-5-0-0-0----------------------------------------
F--5-5-5-5p0---0---0-0-0-0-0-0-0----------------------------------------
C#-0-0-0-0-0-------0-0-0-0-0-0-0----------------------------------------
G#-x-x-x-x---------x-x-x-x-0-0-0----------------------------------------
C#-5-5-5-5-----5---5-5-5-5-0-0-0----------------------------------------


Part 8

C#-0---0-0-2h4-4-4-4-4-4---5p4-2-0-------0-0---0-0---0-0-0-0---0-0------
G#-0---0-0-0---0-0-0-0-0---0---0-0-------0-4---4-4---4-0-0-5/7-0-0------
F--0---0-0-0---0-0-0-0-0---0---0-0---------3---3-3---3-0-0-0---0-0------
C#-0---0-0-0---0-0-0-0-0---0---0-0---------2---2-2---2-0-0-5/7-0-0------
G#-0---0-0-0---0-0-0-0-0---0---0-0-0-------0---0-0---0-0-0--------------
C#-0---0-0-0---0-0-0-0-0---0---0-0---------------------0-0--------------


C#---------0-0-0-----0-0-0-0-0---------0-0---2---2-2-2-2---p0-0---------
G#---------0-0-0-4---0-0-0-0-0-----0---0-0---4---4-4-4-4------0---------
F------0-0-0-0-0-0---0-0-0-0-0-----0---0-0---3---3-3-3-3------0---------
C#-----4-4-4-4-4-4---4-4-4-4-4-----0---0-0-------0-0-0-0------0---------
G#-2---2-2-2-2-2-2---2-2-2-2-2-2p0-----------0---0-0-0-0----------------
C#---------------------------------5-------x----------------------------


Part 9

C#-0---0---2-----2---2/4-----4/5\4-4\2p0--------------------------------
G#-0---0----------------------------------------------------------------
F--0---0-------------------0--------------------------------------------
C#-0---0---2-----2---2/4-----4/5\4-4\2p0--------------------------------
G#-0--------------------------------------------------------------------
C#-0-----0-0---0-0---0--------------------------------------------------


C#---------2-2-----7-\-5---4.---2---------------------------------------
G#-------4-4-4-----9-\-7---5.---1---0-----------------------------------
F------3---3-3----------------------------------------------------------
C#---------0-0----------------------------------------------------------
G#-0-------0-0---0-0------------1---------------------------------------
C#-------------x--------------------------------------------------------


C#-0-------0-0---0h2-0-0-0---0-0-0-0---0-0-0-0---2---2-2-2-2h4p2p0-0----
G#-0-------0-0---0---0-0-0---0-0-0-0---0-0-0-0---4---4-4-4-0-------0----
F--0-------0-0---0---0-0-0---0-0-0-0---0-0-0-0---3---3-3-3-0-------0----
C#---------0-0-------0-0-0---0-0-0-0---0-0-0-0-------0-0-0-0-------0----
G#-2-------2-2-x-2---------2-------------------x-0---0-0-0-0------------
C#---------------------------------5------------------------------------


Part 10

C#-0---0-0---2-2-2-2h4---2---2---4---0----------------------------------
G#-0---0-0--------------------------------------------------------------
F--0---0-0--------------------------------------------------------------
C#-0---0-0--------------------------------------------------------------
G#-0---0-0--------------------------------------------------------------
C#-0---0-0-0-0-----0---------0------------------------------------------


C#---------2-2-----7-\-5---4---2-2-0------------------------------------
G#-------4-4-4-----9-\-7---5---1----------------------------------------
F------3---3-3----------------------------------------------------------
C#---------0-0----------------------------------------------------------
G#-0-------0-0---0-0---0-x-0-x-1----------------------------------------
C#-------------x--------------------------------------------------------


C#-0---0-0-0-0---0h2---0---0-0-0-0-0-0---------0------------------------
G#-0---0-0-0-0---0-----0---0-0-0-0-0---4---------4---0-------0h2---p0---
F--0---0-0-0-0---0-----0---0-0-0-0-0-------5-------5--------------------
C#---------0-----------------0---0-0------------------------------------
G#-2-------2---x-2-----------2-----------------------0------------------
C#-----------------------------------5----------------------------------


C#----------------------------------------------------------------------
G#-0--------------------------------------------------------------------
F--0--------------------------------------------------------------------
C#-0--------------------------------------------------------------------
G#-2--------------------------------------------------------------------
C#----------------------------------------------------------------------



SEE ALSO 

THE GODFATHER THEME TAB by IGOR PRESNYAKOV