20130619

IGOR PRESNYAKOV HERE WITHOUT YOU TAB (ACOUSTIC FINGERSTYLE GUITAR TAB)

3 Doors Down - Here Without You fingerstyle guitar cover played by Igor Presnyakov
It's in Db Ab Db F Ab Db tuning and no Capo is used
Download the TAB under the video



HERE WITHOUT YOU FINGERSTYLE TAB

GP5 + GP6 + PDF >>

Intro

Db-----------0---------------0-------------------------------0----------
Ab-----------------4-------4---4-----------------------------4---4------
F----------0-----0-------0-----------------1--p0-------------3----------
Db-------4-------------4-----------------0-------2----------------------
Ab---2---------------2-----------2p0---2---------0-----------0----------
Db-----------------------------------5----------------------------------


Db---0-----0-----0-0h2-0-------------0-----0-------0-------0------------
Ab-------4---------------2-------2h4-----4-----4-------4-----5/7p0h2----
F--------------0---------------0-------0---------3-------3--------------
Db-----------------------------------------------------------5/7--------
Ab---2-------2-----2---------2-------0-------0-------0-------------2----
Db----------------------------------------------------------------------


Db-------------0---------------0-------------------------------0--------
Ab---2p0-------------4-------4---4-----------------------------4---4----
F--------0---0-----0-------0-----------------1--p0-------------3-----3--
Db-----------------------4-----------------0-------2--------------------
Ab---2---------2-------2-----------2p0---2---------0-----------0--------
Db-------------------------------------5--------------------------------



Db---0-----0-------0h2-0-------------0-----0-------0-------0------------
Ab-------4-------0-------2-------2h4-----4-----4-------4-----5/7-0------
F------0-------0---------------0-----------------3-------3--------------
Db-------------------------------------2---------------------5/7--------
Ab---2-------2-----2---------2-------0-------0-------0-------------2----
Db----------------------------------------------------------------------


Db-----------0---------------0-----------------0-------------------0----
Ab---0h2-----------4-----2-----2-----------------------4-----4----------
F----------0-----0-----0---0---------------0-------------3-------3------
Db---------------------------------------0-------2----------------------
Ab---2---------------2-----------2p0---2---------0---------0------------
Db-----------------------------------5----------------------------------




DOWNLOAD THIS TAB IN GUITAR PRO



  • click 'Free Download'
  • add your e-mail address
  • you will get an e-mail with your download links (in a few seconds)
  • download the Guitar Pro 6 tab + GP5 + PDF for free
  • and that's all ...


Guitar Pro: a complete workshop for guitarists at an affordable price