20130811

OTTMAR LIEBERT BARCELONA NIGHTS TAB

Ottmar Liebert plays Barcelona Nights live with Luna Negra.
Great flamenco guitar song to learn.
TAB below helps to learn this song.



OTTMAR LIEBERT BARCELONA NIGHTS TAB                

PDF >>

Intro

e----7.---8-7---------7-------------------------7-----------8-----------
B-10------------10.-------8-\-----------8-10.-----10---8.-------10-\----
G-----------------------------------------------------------------------
D-----------------------------------------------------------------------
A-----------------------------------------------------------------------
E-----------------------------------------------------------------------


e----7.---8-7--------7-\----------------3-------------------------------
B-10------------10----------------------3-------------------------------
G---------------------------------------4-------------------------------
D---------------------------------------5-------------------------------
A---------------------------------------5-------------------------------
E---------------------------------------3-------------------------------



e-8------------------7.---8-7---------7-----------------------7---------
B-----10-\--------10------------10.-------8-\---------8-10.-----10---8.-
G-9------------------7.---9-7---------7---------------------------------
D-----10-\--------10------------10.-------9-\---------------------------
A-----------------------------------------------------------------------
E-----------------------------------------------------------------------


e-8-------------------7.---8-7---------7-----------3--------------------
B-----10-\---------10------------10.---------------3--------------------
G-9-------------------7.---9-7---------7-----------4--------------------
D-----10-\---------10------------10.---------------5--------------------
A--------------------------------------------------5--------------------
E--------------------------------------------------3--------------------


Part 2

e-8------------------7.---8-7---------7-----------------------7---------
B-----10-\--------10------------10.-------8-\---------8-10.-----10---8.-
G-9------------------7.---9-7---------7---------------------------------
D-----10-\--------10------------10.-------9-\---------------------------
A-----------------------------------------------------------------------
E-----------------------------------------------------------------------


e-8-------------------7.---8-7---------7-------3-3-3--------------------
B-----10-\---------10------------10.-----------3-3-3--------------------
G-9-------------------7.---9-7---------7-------4-4-4--------------------
D-----10-\---------10------------10.-----------5-5-5--------------------
A----------------------------------------------5-5-5--------------------
E----------------------------------------------3-3-3--------------------


e-8------------------7.---8-7---------7-----------------------7---------
B-----10-\--------10------------10.-------8-\---------8-10.-----10---8.-
G-9------------------7.---9-7---------7---------------------------------
D-----10-\--------10------------10.-------9-\---------------------------
A-----------------------------------------------------------------------
E-----------------------------------------------------------------------


e-8-------------------7.---8-7---------7-----7-----8---10-\-------------
B-----10-\---------10------------10.------------------------------------
G-9-------------------7.---9-7------------------------------------------
D-----10-\---------10------------10.------------------------------------
A-----------------------------------------------------------------------
E-----------------------------------------------------------------------


Part 3

e-1-----------0-1-3-1-0---0-1-------0.-----0-----0-----0.-----0---------
B-3---------------------3-----------1.-----0-----1-----3.-----1---------
G-2---------------------------------2.-----2-----2-----2.-----2---------
D-0---------------------------------------------------------------------
A-----------------------------0-----------------------------------------
E-----------------------------------------------------------------------


e-------1-----0-1-3-5-3-------------0.-----0-----0-----0.-----0---------
B-------3---------------6-5-3-------1.-----0-----1-----3.-----1---------
G-------2---------------------------2.-----2-----2-----2.-----2---------
D-------0---------------------------------------------------------------
A-----------------------------0-----------------------------------------
E-----------------------------------------------------------------------


e-0---------------------------------------------------------------------
B-0-----------------------3-5-6-3h5-3---3-------------------------------
G-1-----------------2-4-5-------------5---5-4-2-4-2---------------------
D-2---------------------------------------------------------------------
A-2---------------------------------------------------------------------
E-0---------------------------------------------------------------------


e-0-----------------------------------0---------------------------------
B-0-----------0-1-3-5-3-1-0-3-1-------1---------------------------------
G-1-----------------------------------2---------------------------------
D-2-----------0-2-3-5-3-2-0-3-2-------2---------------------------------
A-2-----------------------------------0---------------------------------
E-0---------------------------------------------------------------------


e-0-----------7----8-7.-------------------------------------------------
B-0-------------10--------8h10-8---------------5-6-8--6-5-3-\-----------
G-1---------9--------------------10-9---p7-9----------------------------
D-2---------------------------------------------------------------------
A-2--------------------------------------------7-8-10-8-7-5-\-----------
E-0---------------------------------------------------------------------


e-0---------------------------------------------------------------------
B-0-----------3-5-6-5-3-3h5-5-3---3-------------------------------------
G-1-----2-4-5-------------------------5---5---4---2.--------------------
D-2---------------------------------------------------------------------
A-2---------------------------------------------------------------------
E-0---------------------------------------------------------------------


Part 4

e-7-7.---------5-8-7-----5--------------------5-5.----5-5.--------------
B-9-9.---5-6-8--------8-----6--5-----5.---x-x-5-5.----5-5.--------------
G-7-7.-----------------------------7------x-x-5-5.----5-5.--------------
D-9-9.------------------------------------x-x-7-7.----7-7.--------------
A-7-7.------------------------------------x-x-7-7.----7-7.--------------
E---------------------------------------------5-5.----5-5.--------------


e-7-7-7-7.--5-7-8-5-7p5---5---------------------------------------------
B-9-9-9-9.--------------8---8-6p5---6p5---5-----------------------------
G-7-7-7-7.------------------------7-----7---7-5-4-7--5-4-----5.---------
D-9-9-9-9.-----------------------------------------------7--------------
A-7-7-7-7.--------------------------------------------------------------
E-----------------------------------------------------------------------


e-7-7.------------------------------------------------------------------
B-9-9.-----10--12/13.---12-10------12.---10-----------------------------
G-7-7.--9-----------------------13----------9---------9--9h10-9---------
D-9-9.--------------------------------------------12-----------10-----9\
A-7-7.-----------------------------------------------------------12.----
E-----------------------------------------------------------------------


e-7-7.------------------------------------------------------------------
B-9-9.----5--6-8--6-5----6-5---5----5------------------5~---5~-------8~-
G-7-7.----------------7-----------7----7-5--4--4h5--/7-----------7------
D-9-9.------------------------------------------------------------------
A-7-7.------------------------------------------------------------------
E-----------------------------------------------------------------------


e-----------------------------------------------------------------------
B-6-8-5~---5~-------8-\----6-8-5~---5~----------------------------------
G---------------7------------------------7.---4---5---5h7-5---5---4---5.
D-----------------------------------------------------------------------
A-----------------------------------------------------------------------
E-----------------------------------------------------------------------


after that Ottmar plays the following chords in a free style rhythm

listen to the record and you'll figure them out or

you can work out your own ones


e-7--------7----------5-------7-----------------------------------------
B-9--------10---------5-------5-----------------------------------------
G-7--------7----------5-------5-----------------------------------------
D-9--------9----------7-------7-----------------------------------------
A-7--------7----------7-------7-----------------------------------------
E---------------------5-------5-----------------------------------------