20130811

OTTMAR LIEBERT BARCELONA NIGHTS TAB (SPANISH GUITAR SOLO TABS)

Ottmar Liebert plays Barcelona Nights live with Luna Negra
Great acoustic spanish guitar song to learn
Download the TAB under the video



OTTMAR LIEBERT BARCELONA NIGHTS TAB


Intro

e----7.---8-7---------7-------------------------7-----------8-----------
B-10------------10.-------8-\-----------8-10.-----10---8.-------10-\----
G-----------------------------------------------------------------------
D-----------------------------------------------------------------------
A-----------------------------------------------------------------------
E-----------------------------------------------------------------------


e----7.---8-7--------7-\----------------3-------------------------------
B-10------------10----------------------3-------------------------------
G---------------------------------------4-------------------------------
D---------------------------------------5-------------------------------
A---------------------------------------5-------------------------------
E---------------------------------------3-------------------------------



e-8------------------7.---8-7---------7-----------------------7---------
B-----10-\--------10------------10.-------8-\---------8-10.-----10---8.-
G-9------------------7.---9-7---------7---------------------------------
D-----10-\--------10------------10.-------9-\---------------------------
A-----------------------------------------------------------------------
E-----------------------------------------------------------------------


e-8-------------------7.---8-7---------7-----------3--------------------
B-----10-\---------10------------10.---------------3--------------------
G-9-------------------7.---9-7---------7-----------4--------------------
D-----10-\---------10------------10.---------------5--------------------
A--------------------------------------------------5--------------------
E--------------------------------------------------3--------------------


Part 2

e-8------------------7.---8-7---------7-----------------------7---------
B-----10-\--------10------------10.-------8-\---------8-10.-----10---8.-
G-9------------------7.---9-7---------7---------------------------------
D-----10-\--------10------------10.-------9-\---------------------------
A-----------------------------------------------------------------------
E-----------------------------------------------------------------------


e-8-------------------7.---8-7---------7-------3-3-3--------------------
B-----10-\---------10------------10.-----------3-3-3--------------------
G-9-------------------7.---9-7---------7-------4-4-4--------------------
D-----10-\---------10------------10.-----------5-5-5--------------------
A----------------------------------------------5-5-5--------------------
E----------------------------------------------3-3-3--------------------


e-8------------------7.---8-7---------7-----------------------7---------
B-----10-\--------10------------10.-------8-\---------8-10.-----10---8.-
G-9------------------7.---9-7---------7---------------------------------
D-----10-\--------10------------10.-------9-\---------------------------
A-----------------------------------------------------------------------
E-----------------------------------------------------------------------


e-8-------------------7.---8-7---------7-----7-----8---10-\-------------
B-----10-\---------10------------10.------------------------------------
G-9-------------------7.---9-7------------------------------------------
D-----10-\---------10------------10.------------------------------------
A-----------------------------------------------------------------------
E-----------------------------------------------------------------------


Part 3

e-1-----------0-1-3-1-0---0-1-------0.-----0-----0-----0.-----0---------
B-3---------------------3-----------1.-----0-----1-----3.-----1---------
G-2---------------------------------2.-----2-----2-----2.-----2---------
D-0---------------------------------------------------------------------
A-----------------------------0-----------------------------------------
E-----------------------------------------------------------------------


e-------1-----0-1-3-5-3-------------0.-----0-----0-----0.-----0---------
B-------3---------------6-5-3-------1.-----0-----1-----3.-----1---------
G-------2---------------------------2.-----2-----2-----2.-----2---------
D-------0---------------------------------------------------------------
A-----------------------------0-----------------------------------------
E-----------------------------------------------------------------------