20131204

AEROSMITH I DON'T WANNA MISS A THING TAB (FINGERSTYLE GUITAR COVER BY GABRIELLA QUEVEDO)


Gabriella Quevedo plays a fingerstyle guitar cover of I Don't Wanna Miss A Thing 
by Aerosmith.  She plays a nice Taylor acoustic guitar that sounds awesome.
See the TAB under the video.


AEROSMITH I DON'T WANNA MISS A THING TAB

PDF >>

Part 1

e-----------------------------------------------------------------------
B-0---------------0---------------0-------------------------------------
G-2---------------2---------------2-------------------------------------
D---------------------------------2-------------------------------------
A-2---------------4-----------------------------------------------------
E-----------------------------------------------------------------------


e------------------------------------------------------2p0-------0------
B-0---------------0---------------0------------------------3-2h3--------
G-2---------------2---------------2-------------------------------------
D---------------------------------2-------------------------------------
A-2---------------4-----------------------------------------------------
E-----------------------------------------------------------------------


e------------------------------------------------------2p0-------0------
B-0---------------0---------------0------------------------3-2h3--------
G-2---------------2---------------2-------------------------------------
D---------------------------------2-------------------------------------
A-2---------------4-----------------------------------------------------
E-----------------------------------------------------------------------



e-----------------------------------------------------------------------
B-0---------------0---------------0--------------------3p2p0------------
G-2---------------2---------------2--------------------------2----------
D---------------------------------2-------------------------------------
A-2---------------4-----------------------------------------------------
E-----------------------------------------------------------------------


Part 2

e-------0---------------2-------0---------------------------------------
B-----3-------3-------3-------3-------3-------3-------3-------3---------
G---2-------2---2---2-------2---------4-------4-------4-------4---------
D-0-------4-------------------------4---4---4---4---4---4---4---0-------
A-----------------4-------4-------2-------2-------2-------2-------------
E-----------------------------------------------------------------------


e-----------------------------------------------------------------------
B-0---------------------------3---0-----------------0---------0---------
G-----2---2---0-2---2---2-----2-------2---2---0-2-------2-------2-------
D---0---0---0---------0-----0---0---2---2---2---------2-----2-----------
A-----------------------------------------------------------------------
E-3-------3-------2-------2-------0-------0-------0-------0-------------


e-------0---------------2-------0---------------------------------------
B-----3-------3-------3-------3-------3-------3-------3-------3---------
G---2-------2---2---2-------2---------4-------4-------4-------4---------
D-0-------4-------------------------4---4---4---4---4---4---4---0-------
A-----------------4-------4-------2-------2-------2-------2-------------
E-----------------------------------------------------------------------


e-----------------------------------------------------------------------
B-0-----------------0-----------------0-------0-------0---0h2-3h5-------
G-----2---2---0-2-------2-----2p0-2p0---0---0---0---0---0---------------
D---0---0---0---------0-----0-------------------------------------------
A-----------------------------------------------------------------------
E-3-------3-------2-------2-------0-------0-------0---------------------


e-------------2-------------0h2---2-----0-0---0-0-0---0---0---0-0-------
B-5-------------------3p0-3-3---3-3-----3-3---3-3-3---3---3---3-3-------
G---------2-----------0---0-------2-----2-2---2-2-2---2---2---2-2-------
D-------2-----------------0-------2-----2-2---2-2-2---2---2---2-2-------
A---------------------------------0-----0-0---0-0-0---0---0---0-0-------
E-2---2-----------3-----------------------------------------------------



Part 3

e---------2---2-2---0---0---0-0-0-0-------0-0---0-5---3---2---0-0-------
B-3-----3-3---3-3---3---3---3-3-3-3-------3-3---3-3---3---3---3-3-3-----
G-2-----2-2---2-2---2---2---2-2-2-2-0-----0-0---0-0-0-0-0-0-0-0-0-0-----
D-0-----0-0---0-0---0---0---0-0-0-0-0-----0-0---0-0-0-0-0-0-0-0-0-------
A-0-----0---------4-----4---4-4-4-4-2-------2---2-----------------------
E-----------------------------------0-------0---0-----------------------


e-0-------0-------0h2-0-------0-----------------------------------------
B-3---0h3-3---3-3-3-------3---------------------------------------------
G-0---0---0---0-0-0-------2-2-------------------------------------------
D-0---0---0---0-0-0-------2---------------------------------------------
A---------x---x-x-x-------0---------------------------------------------
E-3-------3---3-3-3-----------------------------------------------------


e---------2---2-2---0---0---0-0-0-0-------0-0---0-5---3---2---0-0-------
B-3-----3-3---3-3---3---3---3-3-3-3-------3-3---3-3---3---3---3-3-3-----
G-2-----2-2---2-2---2---2---2-2-2-2-0-----0-0---0-0-0-0-0-0-0-0-0-0-----
D-0-----0-0---0-0---0---0---0-0-0-0-0-----0-0---0-0-0-0-0-0-0-0-0-------
A-----------------4-----4---4-4-4-4-2-------2---2-----------------------
E-----------------------------------0-------0---0-----------------------


e-0-------0-------0h2-0-------0---------------0---------------0---------
B-3---0h3-3---3-3-3-------3-------3-----3-3-------------2-3---2---------
G-0---0---0---0-0-0-------2-2-----2-----2-2-------2-----2-2---2---------
D-0---0---0---0-0-0-------2-------0-----0-0-------2-----2-2---2---------
A---------x---x-x-x-------0-----------------------0-----0-0---0---------
E-3-------3---3-3-3-----------------------------------------------------


e-------------0---------------------------------------------------------
B-0-----0-3---0-------------------0-------------------------------------
G-0-----0-0---0---------------------2-----------------------------------
D-2-----2-2---2---------------------------------------------------------
A-2-----2-2---2---------------------------------------------------------
E-0-----0-0---0---------------------------------------------------------



 Part 4

e-------0---------------2-------0---------------------------------------
B-----3-------3-------3-------3-------3-------3-------3-------3---------
G---2-------2---2---2-------2---------4-------4-------4-------4---------
D-0-------4-------------------------4---4---4---4---4---4---4---0-------
A-----------------4-------4-------2-------2-------2-------2-------------
E-----------------------------------------------------------------------


e-----------------------------------------------2---0---------0---------
B-0---------------------------3---0-----------------------------3-------
G-----2---2---0-2---2---2-----2-------2---2---0---------0---------------
D---0---0---0---------0-----0---0---2---2---2---------2-----2-----------
A-----------------------------------------------------------------------
E-3-------3-------2-------2-------0-------0-------0-------0-------------


e-0h2-------------0-----3-----3h5-2-------------------------------------
B-----3-------3-----3-------------------5p3---3-------3---0h2-3h5-------
G-------2---2---2-----2-----2---------4-----4---4---4---4---------------
D-0-------4-------------------------4-----------------------------------
A-----------------4-------4-------2---------------2---------------------
E-----------------------------------------------------------------------


e---------5---2-------------0h2---2---2-0-0---0-0-2p0-0-0-2p0-0-0-------
B-5-------------------3p0-3-3---3-3---3-3-3---3-3-3---3-3-3---3-3-------
G-------2-------------0---0-0-----2---2-2-2---2-2-2---2-2-2---2-2-------
D-------------------------0-------2---2-2-2---2-2-2---2-2-2---2-2-------
A---------------------------------0---0-0-0---0-0-0---0-0-0---0-0-------
E-2---2-----------3-----------------------------------------------------


Part 5 ~ Part 3

e---------2---2-2---0---0---0-0-0-0-------0-0---0-5---3---2---0-0-------
B-3-----3-3---3-3---3---3---3-3-3-3-------3-3---3-3---3---3---3-3-3-----
G-2-----2-2---2-2---2---2---2-2-2-2-0-----0-0---0-0-0-0-0-0-0-0-0-0-----
D-0-----0-0---0-0---0---0---0-0-0-0-0-----0-0---0-0-0-0-0-0-0-0-0-------
A-0-----0---------4-----4---4-4-4-4-2-------2---2-----------------------
E-----------------------------------0-------0---0-----------------------


e-0-------0-------0h2-0-------0-----------------------------------------
B-3---0h3-3---3-3-3-------3---------------------------------------------
G-0---0---0---0-0-0-------2-2-------------------------------------------
D-0---0---0---0-0-0-------2---------------------------------------------
A---------x---x-x-x-------0---------------------------------------------
E-3-------3---3-3-3-----------------------------------------------------


e---------2---2-2---0---0---0-0-0-0-------0-0---0-5---3---2---0-0-------
B-3-----3-3---3-3---3---3---3-3-3-3-------3-3---3-3---3---3---3-3-3-----
G-2-----2-2---2-2---2---2---2-2-2-2-0-----0-0---0-0-0-0-0-0-0-0-0-0-----
D-0-----0-0---0-0---0---0---0-0-0-0-0-----0-0---0-0-0-0-0-0-0-0-0-------
A-----------------4-----4---4-4-4-4-2-------2---2-----------------------
E-----------------------------------0-------0---0-----------------------


e-0-------0-------0h2-0-------0---------0-0-0-0-0-----------------------
B-3---0h3-3---3-3-3-------3-------3-----3-3-3-3-3-----------------------
G-0---0---0---0-0-0-------2-2-----2-----2-2-2-2-2-----------------------
D-0---0---0---0-0-0-------2-------0-----0-0-0-0-0-----------------------
A---------x---x-x-x-------0-------------0-0-0-0-0-----------------------
E-3-------3---3-3-3-----------------------------------------------------



Part 6

e-0---0---0-----0-0-0-0---0-0-0-----------------------------------------
B-1---1---1-----1-1-1-1---1-1-1-0-3---0---0-----0---0-0---3-3-3-0-------
G-0---0---0-----0-0-0-0---0-0-0-0-0---0---0-----0---0-0---0-0-0---------
D-2---2---2-----2-2-2-2---2-2-2-0-0---0---0-----0---0-0---0-0-0---------
A-3---3---3-----3-3-3-3---3-3-3---2---2---2-----2---2-2---2-2-2---------
E---------------------------------3---3---3-----3---3-3---3-3-3---------


e---------1---0---1---0-------------------1-----1---1-1---1-1-1-1-------
B-3---1---3---3---3---3---3---3-3---------1-----1---1-1---1-1-1-1-------
G-3---3---3---3---3---3---3---3-3---------2-----2---2-2---2-2-2-2-------
D-3---3---3---3---3---3---3---3-3-3---3---3-----3---3-3---3-3-3-3-------
A-1---1---1-------1-------1---1-1-3---3---3-----3---3-3---3-3-3-3-------
E---------------------------------1---1---1-----1---1-1---1-1-1-1-------


e-1---0---0-----0---0-0---3-3-3-0-3---3-3/5---3-----3-3---3---3-3-------
B-1---1---1-----1---1-1---1-1-1-1-1-----------0-----0-0---0---0-0-------
G-2---0---0-----0---0-0---0-0-0-0-0-----------0-----0-0---0---0-0-------
D-3---2---2-----2---2-2---2-2-2-2-0-----------0-----0-0---0---0-0-------
A-3---3---3-----3---3-3---3-3-3-3-2-----------x-----x-x---x---x-x-------
E-1-------------------------------3---------3-------3-3---3---3-3-------


e---------0---------------0-------5---5---5-----5-5-5-5---5---5-5-------
B-6---6---6-----6-6-6-6---6---6-6-5---5---5-----5-5-5-5---5---5-5-------
G-7---7---7-----7-7-7-7---7---7-7-6---6---6-----6-6-6-6---6---6-6-------
D-8---8---8-----8-8-8-8---8---8-8-7---7---7-----7-7-7-7---7---7-7-------
A-8---8---8-----8-8-8-8---8---8-8-7---7---7-----7-7-7-7---7---7-7-------
E-6---6---6-----6-6-6-6---6---6-6-5---5---5-----5-5-5-5---5---5-5-------


e-5---5---5---5---5---5---5---5-----------------------------------------
B-5---5---5---5---5---5---5---5-----------------------------------------
G-6---6---6---6---6---6---6---6-----------------------------------------
D-7---7---7---7---7---7---7---7-----------------------------------------
A-7---7---7---7---7---7---7---7-----------------------------------------
E-5---5---5---5---5---5---5---5-----------------------------------------



Part 7

e---------2---2-2---0---0---0-0-0-0-------0-0---0-5---3---2---0-0-------
B-3-----3-3---3-3---3---3---3-3-3-3-------3-3---3-3---3---3---3-3-3-----
G-2-----2-2---2-2---2---2---2-2-2-2-0-----0-0---0-0-0-0-0-0-0-0-0-0-----
D-0-----0-0---0-0---0---0---0-0-0-0-0-----0-0---0-0-0-0-0-0-0-0-0-------
A-0-----0---------4-----4---4-4-4-4-2-------2---2-----------------------
E-----------------------------------0-------0---0-----------------------


e-0-------0-------0h2-0-------0-----------------------------------------
B-3---0h3-3---3-3-3-------3---------------------------------------------
G-0---0---0---0-0-0-------2-2-------------------------------------------
D-0---0---0---0-0-0-------2---------------------------------------------
A---------x---x-x-x-------0---------------------------------------------
E-3-------3---3-3-3-----------------------------------------------------


e---------2---2-2---0---0---0-0-0-0-------0-0---0-5---3---2---0-0-------
B-3-----3-3---3-3---3---3---3-3-3-3-------3-3---3-3---3---3---3-3-3-----
G-2-----2-2---2-2---2---2---2-2-2-2-0-----0-0---0-0-0-0-0-0-0-0-0-0-----
D-0-----0-0---0-0---0---0---0-0-0-0-0-----0-0---0-0-0-0-0-0-0-0-0-------
A-----------------4-----4---4-4-4-4-2-------2---2-----------------------
E-----------------------------------0-------0---0-----------------------


e-0-------0-------0h2-0-------0-----------------------------------------
B-3---0h3-3---3-3-3-------3---------------------------------------------
G-0---0---0---0-0-0-------2-2-------------------------------------------
D-0---0---0---0-0-0-------2---------------------------------------------
A---------x---x-x-x-------0---------------------------------------------
E-3-------3---3-3-3-----------------------------------------------------


e-------2-5-5-2-5.--5.--5h7-7-5-5-----0-0-5-3.--5.--3---2-2-0-0---------
B-3-----3-3-3-3-3.--5.--5---5-5-5-----0-0-3-3.--3.--3---3-3-3-3-3-------
G-2-----2-2-2-2-2.--6.--6---6-6-6-0---0-0-0-0---0---0-0-0-0-0-0---------
D-0-----0-0-0-0-0.--7.--7---7-7-7-2---2-2-0-0---0---0-0-0-0-0-0---------
A-----------------------------0-0-2---2-2-------------------------------
E---------------------------------0---0-0-------------------------------


e-0-------0-------0h2-0-------0-----------------------------------------
B-3---0h3-3---3-3-3-------3---------------------------------------------
G-0---0---0---0-0-0-------2-2-------------------------------------------
D-0---0---0---0-0-0-------2---------------------------------------------
A---------x---x-x-x-------0---------------------------------------------
E-3-------3---3-3-3-----------------------------------------------------



Part 8

e-2-----2-2-2-2-2-2---2---2---2-2-0---0-0-5-3---2-----0h2---------------
B-3-----3-3-3-3-3-3---3---3---3-3-0---0-0-0-0-0-0-0-3-3---3p0-0-0-------
G-4-----4-4-4-2-2-2---2---2---2-2-0---0-0-0-0-0-0-0-0-0---0---0-0-------
D-4-----4-4-4-5-4-x---x---x---x-x-2---2-2-0-0-0-0-0-0-0-------0-0-------
A-2-----2-2-2-2-2-4---4---4---4-4-2---2-2-------------------------------
E---------------------------------0---0-0-------------------------------


e-----------------5---3---2---0-----------------------------------------
B-3---0h3-3---3-3-3---3---3---------------------------------------------
G-0-------0---0-0-0-------2-2-------------------------------------------
D-0-------0---0-0-0-------2---------------------------------------------
A-x-------x---x-x-x-------0---------------------------------------------
E-3-------3---3-3-3-----------------------------------------------------



e-------2-5-3-2-0---0-0-0h2-2-2-2-------0-10-10---10-10-10---10-\-------
B-3-----3-3-3-3-3---3-3-3---3-3-3-------0-10-10---10-10-10---10-\-0-0---
G-2-----2-2-2-2-2---2-2-2---2-2-2-------0-------0----------0------0-0---
D-0-----0-0-0-0-0-----x-----x-x-x-2-------------------------------0-0---
A-----------------4---4-----4-4-4-2-------------------------------------
E---------------------------------0-------------------------------------


e-5---3-2---0-----0h2-0-------0-----------------------------------------
B-0-----0---3-----3---3---3---------------------------------------------
G---------0---0---0-------2-2-------------------------------------------
D-----------------0-------2---------------------------------------------
A-----------------x-------0---------------------------------------------
E-3---------------3-----------------------------------------------------



Part 9

e-------2-3---2---------0-0---0-0---------0-----0---0-----0-------------
B-3-----3-3---3---------3-3---3-3---------3-----3---3-----3-------------
G-2-----2-2---2---------2-2---2-2-0-------0-----0---0-----0-------------
D-0-----0-0---0-----------x---x-x-0-------0-----0-0-0-----0-------------
A-----------------4-------4---4-4-2-------2-----2-2-2-2---2-------------
E---------------------------------0-------0-----0-0-0-0---0---2---------


e---------0---0-0-0h2-0-------0-----------------------------------------
B---------3---3-3-3---3---3---------------------------------------------
G-0-------0---0-0-0-------2-2-------------------------------------------
D-0-------0---0-0-0-------2---------------------------------------------
A-x-------x---x-x-x-------0---------------------------------------------
E-3-------3---3-3-3-----------------------------------------------------


e-------2-3---2---------0-0---0-0---------0-----0---0-----0-------------
B-3-----3-3---3---------3-3---3-3---------3-----3---3-----3-------------
G-2-----2-2---2---------2-2---2-2-0-------0-----0---0-----0-------------
D-0-----0-0---0-----------x---x-x-0-------0-----0-0-0-----0-------------
A-----------------4-------4---4-4-2-------2-----2-2-2-2---2-------------
E---------------------------------0-------0-----0-0-0-0---0---2---------


e---------0---0-0-0h2-0-------0-----------------------------------------
B---------3---3-3-3---3---3---------------------------------------------
G-0-------0---0-0-0-------2-2-------------------------------------------
D-0-------0---0-0-0-------2---------------------------------------------
A-x-------x---x-x-x-------0---------------------------------------------
E-3-------3---3-3-3-----------------------------------------------------


e-------2-3---2---------0-0---0-0---------0-----0---0-----0-------------
B-3-----3-3---3---------3-3---3-3---------3-----3---3-----3-------------
G-2-----2-2---2---------2-2---2-2-0-------0-----0---0-----0-------------
D-0-----0-0---0-----------x---x-x-0-------0-----0-0-0-----0-------------
A-----------------4-------4---4-4-2-------2-----2-2-2-2---2-------------
E---------------------------------0-------0-----0-0-0-0---0---2---------


e---------0---0-0-0h2-0-------0-----------------------------------------
B---------3---3-3-3---3---3-------3-------------------------------------
G-0-------0---0-0-0-------2-2-----2-------------------------------------
D-0-------0---0-0-0-------2-------0-------------------------------------
A-x-------x---x-x-x-------0---------------------------------------------
E-3-------3---3-3-3-----------------------------------------------------