20131204

GABRIELLA QUEVEDO I DON'T WANNA MISS A THING TAB (FINGERSTYLE GUITAR TAB)


Aerosmith - I Don't Wanna Miss A Thing fingerstyle guitar cover by Gabriella Quevedo
She plays a nice Taylor acoustic guitar that sounds awesome
Download the TAB under the video


I DON'T WANNA MISS A THING FINGERSTYLE TAB


Part 1

e-----------------------------------------------------------------------
B-0---------------0---------------0-------------------------------------
G-2---------------2---------------2-------------------------------------
D---------------------------------2-------------------------------------
A-2---------------4-----------------------------------------------------
E-----------------------------------------------------------------------


e------------------------------------------------------2p0-------0------
B-0---------------0---------------0------------------------3-2h3--------
G-2---------------2---------------2-------------------------------------
D---------------------------------2-------------------------------------
A-2---------------4-----------------------------------------------------
E-----------------------------------------------------------------------


e------------------------------------------------------2p0-------0------
B-0---------------0---------------0------------------------3-2h3--------
G-2---------------2---------------2-------------------------------------
D---------------------------------2-------------------------------------
A-2---------------4-----------------------------------------------------
E-----------------------------------------------------------------------



e-----------------------------------------------------------------------
B-0---------------0---------------0--------------------3p2p0------------
G-2---------------2---------------2--------------------------2----------
D---------------------------------2-------------------------------------
A-2---------------4-----------------------------------------------------
E-----------------------------------------------------------------------


Part 2

e-------0---------------2-------0---------------------------------------
B-----3-------3-------3-------3-------3-------3-------3-------3---------
G---2-------2---2---2-------2---------4-------4-------4-------4---------
D-0-------4-------------------------4---4---4---4---4---4---4---0-------
A-----------------4-------4-------2-------2-------2-------2-------------
E-----------------------------------------------------------------------


e-----------------------------------------------------------------------
B-0---------------------------3---0-----------------0---------0---------
G-----2---2---0-2---2---2-----2-------2---2---0-2-------2-------2-------
D---0---0---0---------0-----0---0---2---2---2---------2-----2-----------
A-----------------------------------------------------------------------
E-3-------3-------2-------2-------0-------0-------0-------0-------------


e-------0---------------2-------0---------------------------------------
B-----3-------3-------3-------3-------3-------3-------3-------3---------
G---2-------2---2---2-------2---------4-------4-------4-------4---------
D-0-------4-------------------------4---4---4---4---4---4---4---0-------
A-----------------4-------4-------2-------2-------2-------2-------------
E-----------------------------------------------------------------------


e-----------------------------------------------------------------------
B-0-----------------0-----------------0-------0-------0---0h2-3h5-------
G-----2---2---0-2-------2-----2p0-2p0---0---0---0---0---0---------------
D---0---0---0---------0-----0-------------------------------------------
A-----------------------------------------------------------------------
E-3-------3-------2-------2-------0-------0-------0---------------------


e-------------2-------------0h2---2-----0-0---0-0-0---0---0---0-0-------
B-5-------------------3p0-3-3---3-3-----3-3---3-3-3---3---3---3-3-------
G---------2-----------0---0-------2-----2-2---2-2-2---2---2---2-2-------
D-------2-----------------0-------2-----2-2---2-2-2---2---2---2-2-------
A---------------------------------0-----0-0---0-0-0---0---0---0-0-------
E-2---2-----------3-----------------------------------------------------