20140103

QUEEN LOVE OF MY LIFE TAB (BY BRIAN MAY HIMSELF)


This is a short guitar lesson how to play the main parts of Queen - Love Of My Life
taught by Brian May himself. See the TAB under the video.



QUEEN LOVE OF MY LIFE TAB

PDF >>

Part 1

e---------------2-------------------------------------------------------
B---3---2---3-----------------------3-----------------------------------
G--2----------------------------2---------------------------------------
D-0---------------------------------------------------------------------
A---------------------------------------4-------------------------------
E-----------------------------------------------------------------------


e----------------2------------------------------------------------------
B----3---2---3----------------------------------------------------------
G---4-----------------------------------4-------------------------------
D--4--------------------------------4-----------------------------------
A-2---------------------------------------------------------------------
E-----------------------------------------------------------------------


e-0---------------0-----------------------------------------------------
B-0-----------0-----------3-------2-------3-------5---\---2~------------
G-0-------0-------------------------------------------------------------
D-2---2---------------2-------2---2-------4-------5---\---2~------------
A---------------------------------0---0-------0-------------------------
E-0---------------------------------------------------------------------



Part 2

e---------------2-------------------------------------------------------
B---3---2---3-----------------------------------------------------------
G--2--------------------------------------------------------------------
D-0-----------------------------0---------------------------------------
A---------------------------------------4-------------------------------
E-----------------------------------------------------------------------


e----------------2------------------------------------------------------
B----3---2---3---------------3---------------3--------------------------
G---4-------------------------------------------------------------------
D--4-----------------4--------------------------------------------------
A-2----------------------------------0----------------------------------
E-----------------------------------------------------------------------


e--------------0------------------------0-------------------------------
B--------3-----------3------------3-----------3-------------------------
G--4------------------------2-------------------------------------------
D-----------------------------------------------------------------------
A-----------------------------------------------------------------------
E-3------------------------2--------------------------------------------


e-------------------------------------0---------------------------------
B-0------------------------------------x--------------------------------
G-1-----------2-----------4-------------7~--------------\\\-------------
D-2-----------4-----------6--------------9~-------------\\\-------------
A-2---------------------------------------x-----------------------------
E-0-----0-----------0-----------0----------0----------------------------


Part 3

e---------------0---------------------------2---------------------------
B-------------------------------------------2-------2-------------------
G---2---1---2---------------2---------------2---------------2-----------
D--2--------------------2---------------4-------4-------4---------------
A-0---------------------------------------------------------------------
E-------------------------------4---2-----------------------------------


e----------------2-------------------0----------------------------------
B----3---2---3-------------------3---0----------------------------------
G---4--------------------4-----------1-------2-------4---\---1----------
D--4-----------------4-------4-------2-------4-------6---\---2----------
A-2----------------------------------2----------------------------------
E------------------------------------0---0-------0----------------------


Part 4

e----------------2-------0-------2---2---------------2------------------
B----2---0-------2-------2-------------------3---------------3----------
G---2--------2---0-------0---------------2-------2-------2--------------
D--2-------------5-------5-----------0----------------------------------
A-0--------------------------------------------------------------4------
E-----------------------------------------------------------------------


e-----------------------------------------------------------------------
B----3-----------3---2-----------2------3---2-----------------3.---3----
G---4--------4---------------2---------4--------4-----4-------2.---2----
D--4-----4---------------4------------5--------------5--------0.---0----
A-2---------------------------------------------------------------------
E--------------------2---------------3--------------3-------------------


e-3-------2---------------0---------------------------------------------
B-3-------3-------3-------0-----------3---2-----------3-----------------
G-4-------2---2-----------0-------0---------------2---------------------
D-5---5---0-----------4---2---2---------------2-------------------------
A-----------------2-----------------------0-----------------------------
E-3-----------------------0---------------------------------------------


e-----------------2-----------------------------------------------------
B---------3-------------------------------------------------------------
G-----2-----------------------------------------------------------------
D-0---------------------------------------------------------------------
A-----------------------------------------------------------------------
E-----------------------------------------------------------------------