20140103

QUEEN LOVE OF MY LIFE TAB (ELECTRIC GUITAR TAB)


Queen - Love Of My Life main electric guitar parts played by Brian May himself
Standard tuning, no tricks - thank you Sir
Download the TAB under the video



LOVE OF MY LIFE TAB


Part 1

e---------------2-------------------------------------------------------
B---3---2---3-----------------------3-----------------------------------
G--2----------------------------2---------------------------------------
D-0---------------------------------------------------------------------
A---------------------------------------4-------------------------------
E-----------------------------------------------------------------------


e----------------2------------------------------------------------------
B----3---2---3----------------------------------------------------------
G---4-----------------------------------4-------------------------------
D--4--------------------------------4-----------------------------------
A-2---------------------------------------------------------------------
E-----------------------------------------------------------------------


e-0---------------0-----------------------------------------------------
B-0-----------0-----------3-------2-------3-------5---\---2~------------
G-0-------0-------------------------------------------------------------
D-2---2---------------2-------2---2-------4-------5---\---2~------------
A---------------------------------0---0-------0-------------------------
E-0---------------------------------------------------------------------



Part 2

e---------------2-------------------------------------------------------
B---3---2---3-----------------------------------------------------------
G--2--------------------------------------------------------------------
D-0-----------------------------0---------------------------------------
A---------------------------------------4-------------------------------
E-----------------------------------------------------------------------


e----------------2------------------------------------------------------
B----3---2---3---------------3---------------3--------------------------
G---4-------------------------------------------------------------------
D--4-----------------4--------------------------------------------------
A-2----------------------------------0----------------------------------
E-----------------------------------------------------------------------


e--------------0------------------------0-------------------------------
B--------3-----------3------------3-----------3-------------------------
G--4------------------------2-------------------------------------------
D-----------------------------------------------------------------------
A-----------------------------------------------------------------------
E-3------------------------2--------------------------------------------


e-------------------------------------0---------------------------------
B-0------------------------------------x--------------------------------
G-1-----------2-----------4-------------7~--------------\\\-------------
D-2-----------4-----------6--------------9~-------------\\\-------------
A-2---------------------------------------x-----------------------------
E-0-----0-----------0-----------0----------0----------------------------


Part 3

e---------------0---------------------------2---------------------------
B-------------------------------------------2-------2-------------------
G---2---1---2---------------2---------------2---------------2-----------
D--2--------------------2---------------4-------4-------4---------------
A-0---------------------------------------------------------------------
E-------------------------------4---2-----------------------------------