20140306

JANA GANA MANA THE INDIAN NATIONAL ANTHEM TAB (COVER BY TAKAR NABAM)


Takar Nabam plays the Indian National Anthem (Jana Gana Mana) with a classical guitar. See the TAB under the video.



THE INDIAN NATIONAL ANTHEM TAB

PDF >>

e---0-2-2-2---2-2-2---2-2-0-2-3---2---2-2-0---0-0---0-2-----------------
B-3-------3-------3-------3-------3-------2-------2---3-------3---------
G-2-------2-------2-------0-------2-------2-----------2-----------------
D-0-------------------------------0-------------------0-----------------
A---------4-------2-----------------------0-------0---------------------
E-------------------------3---------------------------------------------


e-5---5-5-5---5-4-5---5-5-4-7-5---3---3-3-3---3-2---3-2-----------------
B-3-------3-------3---------------3-------3-------3---3-----------------
G---------------------------------0-------3-----------------------------
D-----------------------------------------5-----------0-----------------
A-5-------4-------2-------0-----------------------0---------------------
E---------------------------------3-------------------------------------


e-2---2-2-2---2-0-5-5-5---3---3---2---2-2-0-0-0-0---0-------------------
B-3-------1-------3-3-3---3-----3-3-------2-------2---3-----------------
G-2-------2---------------0-------2-------2-----------------------------
D-0-------0---------------2-------0-------------------0-----------------
A-------------------------3---------------0-------0---------------------
E-----------------3-----3-----------------------------------------------



e-2-2-2-2-2-2-2-2-0-2-3-------------------------------------------------
B-3-------1-------3---3-------------------------------------------------
G-2-------2-------0---0-------------------------------------------------
D-0-------0-------------------------------------------------------------
A---------------------3-------------------------------------------------
E-----------------3-----------------------------------------------------


e-2-3-5-5-5---3-2-0-3-2-------------------------------------------------
B-3-------2-------3---3-------------------------------------------------
G-2-------------------2-------------------------------------------------
D-0-------------------0-------------------------------------------------
A---------4-------1-----------------------------------------------------
E-----------------------------------------------------------------------


e-2---2-2-0-0-0-0---0---------------------------------------------------
B-3-------2-------2---3-------------------------------------------------
G-2-------2-------------------------------------------------------------
D-----------------------------------------------------------------------
A---------0-------0-----------------------------------------------------
E-----------------------------------------------------------------------


e-5-5-5-5-5---5-4-5---5-5-4-7-5---3---3-3-3---3-2---3-2-----------------
B-3-------3-------3---------------3-------3-------3---3-----------------
G---------------------------------0-------3-----------------------------
D-----------------------------------------5-----------0-----------------
A-5-------4-------2-------0-----------------------0---------------------
E---------------------------------3-------------------------------------


e-9-9-10-\---2-----9-7-9-----0-----7-5-7-----3--------------------------
B------------3---------------2---------------3--------------------------
G------------2---------------2---------------0--------------------------
D-----0----0-0---0---------2---------------0----------------------------
A------------------------0-------0--------------------------------------
E----------------------------------------3------------------------------


e-----0---2---0-2--------3----------------------------------------------
B-3-----------3---------3-----------------------------------------------
G---2---2---2-2--------3------------------------------------------------
D-0-------------------5-------------------------------------------------
A-----4---2---0------5--------------------------------------------------
E-------------------3---------------------------------------------------


e-----------------------------------------3<15>-------------------------
B---------------------------------3<15>---------------------------------
G-------------------------3<15>-----------------------------------------
D-----------------5<17>-------------------------------------------------
A---------5<17>---------------------------------------------------------
E-3<15>-----------------------------------------------------------------