20140306

JANA GANA MANA FINGERSTYLE TAB


The Indian National Anthem (Jana Gana Mana) fingerstyle classical guitar cover
It's arranged and played in standard tuning by Takar Nabam
Download the TAB below



THE INDIAN NATIONAL ANTHEM TAB

GP5 + GP6 + PDF >>

e---0-2-2-2---2-2-2---2-2-0-2-3---2---2-2-0---0-0---0-------------------
B-3-------3-------3-------3-------3-------2-------2---3-------3---------
G-2-------2-------2-------0-------2-------2-----------------------------
D-0-------------------------------0-------------------0-----------------
A---------4-------2-----------------------0-------0---------------------
E-------------------------3---------------------------------------------


e-5---5-5-5---5-4-5---5-5-4-7-5---3---3-3-3---3-2-0-3-2-----------------
B-3-------3-------3---------------3-------3-------3---------------------
G---------------------------------0-------3-----------------------------
D-----------------------------------------5-----------0-----------------
A-5-------4-------2-------0-----------------------0---------------------
E---------------------------------3-------------------------------------


e-2---2-2-2---2-0-5-5-5---3---3---2---2-2-0-0-0-0---0-------------------
B-3-------1-------3-3-3---3-----3-3-------2-------2---3-----------------
G-2-------2---------------0-------2-------2-----------------------------
D-0-------0---------------2-------0-------------------0-----------------
A-------------------------3---------------0-------0---------------------
E-----------------3-----3-----------------------------------------------



e-2-2-2-2-2-2-2-2-0-2-3-------------------------------------------------
B-3-------1-------3---3-------------------------------------------------
G-2-------2-------0---0-------------------------------------------------
D-0-------0-------------------------------------------------------------
A---------------------3-------------------------------------------------
E-----------------3-----------------------------------------------------


e-2-3-5-5-5---3-2-0-3-2-------------------------------------------------
B-3-------2-------3---3-------------------------------------------------
G-2-------------------2-------------------------------------------------
D-0-------------------0-------------------------------------------------
A---------4-------1-----------------------------------------------------
E-----------------------------------------------------------------------


e-2---2-2-0-0-0-0---0---------------------------------------------------
B-3-------2-------2---3-------------------------------------------------
G-2-------2-------------------------------------------------------------
D-0-------------------0-------------------------------------------------
A---------0-------0-----------------------------------------------------
E-----------------------------------------------------------------------