20140310

SUMMER HOLIDAY TAB (COVER BY BURNS ERNST)


Burns Ernst plays a solo guitar cover of Summer Holiday by Cliff Richard.
He uses and old, red Fender Stratocaster.
See the TAB under the video.



SUMMER HOLIDAY TAB

PDF >>

Part 1

e-----------------------------------------------------------------------
B-----------------------------------------------------------------------
G-------4-----2---1-------------------1---------------------------------
D-------------------4---2---------4-----4---2---------------------------
A-2-------------------------------------------4-------------------------
E-----------------------------------------------------------------------


e-----------------------------------------------------------------------
B-----------------------------------------------------------------------
G-----4-2---1-----------1-2---------------------------------------------
D-------------4---2-----------4-----------------------------------------
A-2.--------------------------------------------------------------------
E-----------------------------------------------------------------------


e-----------------------------------------------------------------------
B-----------------------------------------------------------------------
G-------4-----2---1-------------------1---------------------------------
D-------------------4---2---------4-----4---2-----2---------------------
A-2-------------------------------------------4-------------------------
E-----------------------------------------------------------------------



e-----------------------------------------------------------------------
B-----------------------------------------------------------------------
G-----------1-------------------1.--------------------------------------
D-4.----4-----4---2-------2.--------------------------------------------
A-------------------4.----------------2---(-p1-----0-)------------------
E-----------------------------------------------------------------------


e-----------------------------------------------------------------------
B-----------------------------------------------------------------------
G-----1-----------------------------------------------------------------
D-4-----4---2-------2---------------------------------------------------
A-------------4.--------------------------------------------------------
E-----------------------------------------------------------------------


Part 2

e-----------------------------------------------------------------------
B-----------------------------------------------------------------------
G-1---------------------------------------------------------------------
D---4---4-4---2-4---4-/-6-\---2-----------------------------------------
A-----------------------------------2-----------------------------------
E-----------------------------------------------------------------------


e-----------------------------------------------------------------------
B-------------------2-0-------------------------------------------------
G-1-2---1-2---1-2---------1---------------------------------------------
D-----------------------------------------------------------------------
A-----------------------------------------------------------------------
E-----------------------------------------------------------------------


e-----------------------------------------------------------------------
B-0-0---------0---2---2(4)---(2)-2--------------------------------------
G-------1---3-----------------------------------------------------------
D-----------------------------------------------------------------------
A-----------------------------------------------------------------------
E-----------------------------------------------------------------------


e-----------------------------------------------------------------------
B-4-5.----5.----4.----2h4p2-0-------------------------------------------
G-----------------------------------------------------------------------
D-----------------------------------------------------------------------
A-----------------------------------------------------------------------
E-----------------------------------------------------------------------


Part 3 = Part 1


Part 4 = Part 2


Part 5

e-----------------------------------------------------------------------
B-----------------------------------------------------------------------
G-------5-----3---2-------------------2---------------------------------
D-------------------5---3---------5-----5---3---------------------------
A-3-------------------------------------------5-------------------------
E-----------------------------------------------------------------------


e-----------------------------------------------------------------------
B-----------------------------------------------------------------------
G-----5-3---2-----------2-3---------------------------------------------
D-------------5---3-----------5-----------------------------------------
A-3.--------------------------------------------------------------------
E-----------------------------------------------------------------------


e-----------------------------------------------------------------------
B-----------------------------------------------------------------------
G-------5-----3---2-------------------2---------------------------------
D-------------------5---3---------5-----5---3-----3---------------------
A-3-------------------------------------------5-------------------------
E-----------------------------------------------------------------------


e-----------------------------------------------------------------------
B-----------------------------------------------------------------------
G-----------2-------------------2.--------------------------------------
D-5.----5-----5---3-------3.--------------------------------------------
A-------------------5.----------------3---(--2-----1-)------------------
E-----------------------------------------------------------------------


e-----------------------------------------------------------------------
B-----------------------------------------------------------------------
G-----2-------------------2.--------------------------------------------
D-5-----5---3-------3---------------------------------------------------
A-------------5.----------------3---(--2-----1-)------------------------
E-----------------------------------------------------------------------


e-----------------------------------------------------------------------
B-----------------------------------------------------------------------
G-----2-----------------------------------------------------------------
D-5-----5---3-------3---------------------------------------------------
A-------------5.--------------------------------------------------------
E-----------------------------------------------------------------------


e-----------------------------------------------------------------------
B-----------------------------------------------------------------------
G-----2-----------------------------------------------------------------
D-5-----5---3-------3---------------------------------------------------
A-------------5.--------------------------------------------------------
E-----------------------------------------------------------------------