20140310

CLIFF RICHARD SUMMER HOLIDAY INSTRUMENTAL GUITAR TAB


Cliff Richard - Summer Holiday instrumental guitar cover played by Burns Ernst
Easy guitar instrumental with backing track
Download the TAB under the video



SUMMER HOLIDAY INSTRUMENTAL TAB


Part 1

e-----------------------------------------------------------------------
B-----------------------------------------------------------------------
G-------4-----2---1-------------------1---------------------------------
D-------------------4---2---------4-----4---2---------------------------
A-2-------------------------------------------4-------------------------
E-----------------------------------------------------------------------


e-----------------------------------------------------------------------
B-----------------------------------------------------------------------
G-----4-2---1-----------1-2---------------------------------------------
D-------------4---2-----------4-----------------------------------------
A-2.--------------------------------------------------------------------
E-----------------------------------------------------------------------


e-----------------------------------------------------------------------
B-----------------------------------------------------------------------
G-------4-----2---1-------------------1---------------------------------
D-------------------4---2---------4-----4---2-----2---------------------
A-2-------------------------------------------4-------------------------
E-----------------------------------------------------------------------



e-----------------------------------------------------------------------
B-----------------------------------------------------------------------
G-----------1-------------------1.--------------------------------------
D-4.----4-----4---2-------2.--------------------------------------------
A-------------------4.----------------2---(-p1-----0-)------------------
E-----------------------------------------------------------------------


e-----------------------------------------------------------------------
B-----------------------------------------------------------------------
G-----1-----------------------------------------------------------------
D-4-----4---2-------2---------------------------------------------------
A-------------4.--------------------------------------------------------
E-----------------------------------------------------------------------


Part 2

e-----------------------------------------------------------------------
B-----------------------------------------------------------------------
G-1---------------------------------------------------------------------
D---4---4-4---2-4---4-/-6-\---2-----------------------------------------
A-----------------------------------2-----------------------------------
E-----------------------------------------------------------------------


e-----------------------------------------------------------------------
B-------------------2-0-------------------------------------------------
G-1-2---1-2---1-2---------1---------------------------------------------
D-----------------------------------------------------------------------
A-----------------------------------------------------------------------
E-----------------------------------------------------------------------