20140302

TITANIC THEME TAB (MY HEART WILL GO ON COVER BY VORDRAB)

Vordrab plays the Titanic theme with an electric guitar.
He tunes the guitar half note lower but it also works in standard tuning.
See the TAB in standard tuning under the video.



TITANIC THEME TAB

PDF >>

Part 1 (Clean)

e-----------------------------------------------------------------------
B----------------------------------------------------9-----10-9---------
G-8/9-------9-----9-8---9---\-----9-8---9-------11-------------11-------
D-----------------------------------------------------------------------
A-----------------------------------------------------------------------
E-----------------------------------------------------------------------


e-----------------------------------------------------------------------
B-----------------------------------------------------------------------
G-8/9-------9-----9-8---9-------8---------------------------------------
D-----------------------------------9-----------------------\-----------
A-----------------------------------------------------------------------
E-----------------------------------------------------------------------



e-----------------------------------------------------------------------
B----------------------------------------------------9-----10-9---------
G-8/9-------9-----9-8---9---\-----9-8---9-------11-------------11---9-8-
D-----------------------------------------------------------------------
A-----------------------------------------------------------------------
E-----------------------------------------------------------------------



e-----------------------------------------------------------------------
B--------------------------------------------------------------9--------
G-8h9-------9-----9-8---9-------8-----------------------8-9-11---11-9\8-
D-----------------------------------9-----------------9-----------------
A-----------------------------------------------------------------------
E-----------------------------------------------------------------------


Part 2

e-----------------------------------------------------------------------
B-----------------------------------12-------10-9------------9-11---9---
G-9-----------9h11-11-------------------------------11------------------
D-------------------------------9---------------------------------------
A-----------------------------------------------------------------------
E-----------------------------------------------------------------------


e-----------------------------------------------------------------------
B-----------------------------------------------------------9-----------
G---------11--\--9-8---9-------8---------------------8-9-11---11-9p8----
D----------------------------------9---------------9--------------------
A-----------------------------------------------------------------------
E-----------------------------------------------------------------------


e-----------------------------------------------------------------------
B-----------------------------------12-------10-9------------9-10---9---
G-9-----------9h11-11-------------------------------11------------------
D-------------------------------9---------------------------------------
A-----------------------------------------------------------------------
E-----------------------------------------------------------------------


e-----------------------------------------------------------------------
B-----------------------------------------------------------------------
G---------11---9-\-8---9-------8----------------------------------------
D----------------------------------9------------------------------------
A-----------------------------------------------------------------------
E-----------------------------------------------------------------------


Part 3

e-----------------------------------------------------------------------
B--------9-------10-9---------12--------9-------------------------------
G-8-9/11--------------11-9-11---------------9---------------------------
D-----------------------------------------------------------------------
A-----------------------------------------------------------------------
E-----------------------------------------------------------------------


Part 4 (Distortion)

e-----------------------------------------------------------------------
B-----------------------------------------------------------------------
G-/9-------9-----9-8---9---\-----9-8---9--------11---11(13)-----(11)-11-
D-----------------------------------------------------------------------
A-----------------------------------------------------------------------
E-----------------------------------------------------------------------


e-----------------------------------------------------------------------
B-----------------------------------------------------------------------
G-/9-------9-----9-8---9-------8----------------------8---9---8h9p8-----
D----------------------------------9--------------------------------9---
A-----------------------------------------------------------------------
E-----------------------------------------------------------------------


e-----------------------------------------------------------------------
B------------------------------------------------------9----------------
G-8h9-------9-----9-8---9-------9p8-8---9-------9/11--------------------
D-----------------------------------------------------------------------
A-----------------------------------------------------------------------
E-----------------------------------------------------------------------


e---------------------------------------------------------------12------
B-9(10)(9)----------------------------------------9-12-12(14)-----12(14)
G----------11-9-8----8(9)(8)--------------9~---11-----------------------
D-----------------11---------11-9----9-11-------------------------------
A---------------------------------11------------------------------------
E-----------------------------------------------------------------------


e-----------------------------------------------------------------------
B----(14)---(12)-10-9h10p9----------------------------------------------
G-------------------------11-9-8----8-9-8-------------------------------
D--------------------------------11-------------------------------------
A-----------------------------------------------------------------------
E-----------------------------------------------------------------------


Part 5

e-----------------------------------------------------------------------
B-----------------------------------12------/10-9------------9-11---9---
G-8/9---------9h11-11-------------------------------11------------------
D-------------------------------9---------------------------------------
A-----------------------------------------------------------------------
E-----------------------------------------------------------------------


e-----------------------------------------------------------------------
B-----------------------------------------------------------------------
G---------11---9\8-8---9-------8----------------------------------------
D----------------------------------9------------------------------------
A-----------------------------------------------------------------------
E-----------------------------------------------------------------------


e---------------------------12------------------------------------------
B-----------9h12-12(14)--------(14)(12)-9-------------------------------
G------9h11-------------------------------9-----------------------------
D-9h11------------------------------------------------------------------
A-----------------------------------------------------------------------
E-----------------------------------------------------------------------


e-----------------------------------------------------------------------
B-----------------------------------12-------10-9-----------9---11---9--
G-8/9---------9h11-11-------------------------------11------------------
D-------------------------------9---------------------------------------
A-----------------------------------------------------------------------
E-----------------------------------------------------------------------


e-----------------------------------------------------------------------
B-----------------------------------------------------------------------
G---------11---9---8---9-------8----------------------------------------
D----------------------------------9------------------------------------
A-----------------------------------------------------------------------
E-----------------------------------------------------------------------


Part 6

e-----------------------------------------------------------------------
B--------9-------10p9---------12--------10-9h10p9-----------------------
G-8h9-11--------------11-9-11---------------------9---------------------
D-----------------------------------------------------------------------
A-----------------------------------------------------------------------
E-----------------------------------------------------------------------


e---------------------------------------------9-------------------------
B------9---------10p9---------12---------9-12-12(14)~-------------------
G-9-11----------------11-9-11-------------------------------------------
D-----------------------------------------------------------------------
A-----------------------------------------------------------------------
E-----------------------------------------------------------------------


e-9---------12------------14--------------------------------------------
B-12(14)~---15(17)~-------17(19)~---------------------------------------
G-----------------------------------------------------------------------
D-----------------------------------------------------------------------
A-----------------------------------------------------------------------
E-----------------------------------------------------------------------


Part 7

e-16------------16-16/18-18~---------------21(23)-------21-20h21p20--18-
B-19(21)~~~---------------------------16--------------------------------
G-----------------------------------------------------------------------
D-----------------------------------------------------------------------
A-----------------------------------------------------------------------
E-----------------------------------------------------------------------


e----------20-18h20p18-16h18p16-15h16p15-13-------------13--------------
B---------------------------------------------16---13---16(18)~---------
G-----------------------------------------------------------------------
D-----------------------------------------------------------------------
A-----------------------------------------------------------------------
E-----------------------------------------------------------------------


e-13-------13-13-16p13----13h16p13--------------------------------------
B-16(18)---------------16----------16p13--------------------------------
G------------------------------------------15(17)(15)-13----------------
D----------------------------------------------------------15-13--------
A----------------------------------------------------------------15-14--
E-----------------------------------------------------------------------


e-----------------------------------------------------------------------
B-----------------------------------------------------------------------
G-------------------------------------13h15p13-15p13-15p13--13h15p13----
D-------------------------------13-15---------------------15--------15--
A-13h14p13-------------11-13/15-----------------------------------------
E----------16-13-11h13--------------------------------------------------


e--------------------------------------13-------------------------------
B----------13~----------------------------13-16(18)-----16---16---16(18)
G-13-15-13-13~-------------13-15(17)------------------------------------
D-----------------15-13-15----------------------------------------------
A-----------------------------------------------------------------------
E-----------------------------------------------------------------------


Part 8

e--------------------13-16-13-16-16(18)-------(20)---16(18)(16)---------
B-----16(18)~-----------------------------------------------------------
G-----------------------------------------------------------------------
D-----------------------------------------------------------------------
A-----------------------------------------------------------------------
E-----------------------------------------------------------------------


e-13-13-13-13-16p13-----------------------------------------------------
B-------------------16-13h16p13-----------------------------------------
G-------------------------------15-15(17)(15)-13------------------------
D------------------------------------------------15-13------------------
A------------------------------------------------------15-13------------
E------------------------------------------------------------16-11~-----


e-----------------------------------------------------------------------
B-----------------------------------------------------------------------
G------------------------13--12--13--13/15------------------------------
D----------------13--15-------------------------------------------------
A-----11--13/15---------------------------------------------------------
E-13--------------------------------------------------------------------


e-----------------------------------------------------------------------
B-13--14--16--14--13h14p13----------------------------------------------
G--------------------------15-13-13(15)(13)-----------------------------
D-----------------------------------------------15-13-15~---------------
A-----------------------------------------------------------------------
E-----------------------------------------------------------------------


e--------------------16-------------------------------------------------
B---13-16-16(18)--------(18)-(16)---14---13h14p13-----------------------
G--x----------------------------------------------15---13---12----------
D-x---------------------------------------------------------------------
A-----------------------------------------------------------------------
E-----------------------------------------------------------------------


e-----------------------------------------------------------------------
B-----------------------------------------------------------------------
G------12---13---12---13~-----------------------------------------------
D-15--------------------------------------------------------------------
A-----------------------------------------------------------------------
E-----------------------------------------------------------------------


Part 9

e-----------------------------------------------------------------------
B---------------------13-------14p13----------16------------------------
G-15-15-13-13---13-15----------------15-13-15---------------------------
D-----------------------------------------------------------------------
A-----------------------------------------------------------------------
E-----------------------------------------------------------------------


e-----------------------------------------------------------------------
B-13-16-16(18)(16)(18)-----(18)(16)-16-14-13h14p13----------------------
G--------------------------------------------------15-13----------------
D----------------------------------------------------------15-----------
A-----------------------------------------------------------------------
E-----------------------------------------------------------------------


e--------------------------------------------13--15--16-----------------
B---------13--14--13h14p13----------13-14-16----------------------------
G-----13-------------------13----13-------------------------------------
D-13--------------------------13----------------------------------------
A-----------------------------------------------------------------------
E-----------------------------------------------------------------------


e-16-15-13--------------------------------------------------------------
B----------16-14-13-----------------------------------------------------
G-------------------15-13---12h13-\\\\----------------------------------
D-----------------------------------------------------------------------
A-----------------------------------------------------------------------
E-----------------------------------------------------------------------