20140302

TITANIC THEME TAB (ELECTRIC GUITAR TAB)


Titanic theme (My Heart Will Go On) instrumental electric guitar cover by Vordrab
He uses half-step down tuning but the transcription is in standard tuning
Download the TAB under the video



TITANIC THEME ELECTRIC GUITAR TAB


Part 1 (Clean)

e-----------------------------------------------------------------------
B----------------------------------------------------9-----10-9---------
G-8/9-------9-----9-8---9---\-----9-8---9-------11-------------11-------
D-----------------------------------------------------------------------
A-----------------------------------------------------------------------
E-----------------------------------------------------------------------


e-----------------------------------------------------------------------
B-----------------------------------------------------------------------
G-8/9-------9-----9-8---9-------8---------------------------------------
D-----------------------------------9-----------------------\-----------
A-----------------------------------------------------------------------
E-----------------------------------------------------------------------



e-----------------------------------------------------------------------
B----------------------------------------------------9-----10-9---------
G-8/9-------9-----9-8---9---\-----9-8---9-------11-------------11---9-8-
D-----------------------------------------------------------------------
A-----------------------------------------------------------------------
E-----------------------------------------------------------------------



e-----------------------------------------------------------------------
B--------------------------------------------------------------9--------
G-8h9-------9-----9-8---9-------8-----------------------8-9-11---11-9\8-
D-----------------------------------9-----------------9-----------------
A-----------------------------------------------------------------------
E-----------------------------------------------------------------------


Part 2

e-----------------------------------------------------------------------
B-----------------------------------12-------10-9------------9-11---9---
G-9-----------9h11-11-------------------------------11------------------
D-------------------------------9---------------------------------------
A-----------------------------------------------------------------------
E-----------------------------------------------------------------------


e-----------------------------------------------------------------------
B-----------------------------------------------------------9-----------
G---------11--\--9-8---9-------8---------------------8-9-11---11-9p8----
D----------------------------------9---------------9--------------------
A-----------------------------------------------------------------------
E-----------------------------------------------------------------------


e-----------------------------------------------------------------------
B-----------------------------------12-------10-9------------9-10---9---
G-9-----------9h11-11-------------------------------11------------------
D-------------------------------9---------------------------------------
A-----------------------------------------------------------------------
E-----------------------------------------------------------------------


e-----------------------------------------------------------------------
B-----------------------------------------------------------------------
G---------11---9-\-8---9-------8----------------------------------------
D----------------------------------9------------------------------------
A-----------------------------------------------------------------------
E-----------------------------------------------------------------------


Part 3

e-----------------------------------------------------------------------
B--------9-------10-9---------12--------9-------------------------------
G-8-9/11--------------11-9-11---------------9---------------------------
D-----------------------------------------------------------------------
A-----------------------------------------------------------------------
E-----------------------------------------------------------------------


Part 4 (Distortion)

e-----------------------------------------------------------------------
B-----------------------------------------------------------------------
G-/9-------9-----9-8---9---\-----9-8---9--------11---11(13)-----(11)-11-
D-----------------------------------------------------------------------
A-----------------------------------------------------------------------
E-----------------------------------------------------------------------


e-----------------------------------------------------------------------
B-----------------------------------------------------------------------
G-/9-------9-----9-8---9-------8----------------------8---9---8h9p8-----
D----------------------------------9--------------------------------9---
A-----------------------------------------------------------------------
E-----------------------------------------------------------------------