20140414

KATIE MELUA NINE MILLION BICYCLES IN BEIJING TAB (COVER BY PHIL MCGARRICK)

Phil McGarrick plays a nice cover of Katie Melua's Nine Million Bicycles in Beijing.
This version was performed originally by the legendary guitarist, Hank Marvin.
See the TAB of this instrumental version under the video.



NINE MILLION BICYCLES IN BEIJING TAB

PDF >>

Part 1

e-----------------------------------------------------------------------
B-----5---7~------7---5-7---7-5-----------------------------------------
G-6-------------------------------6---4h5h6-6~--------------------4~----
D-----------------------------------------------------------4---7-------
A-----------------------------------------------------------------------
E-----------------------------------------------------------------------


e-----------------------------------------------------------------------
B-----------------------------------------------------------------------
G-------4---4/6-\-4-------------------4---4/6-\-4-----------------------
D-4---7---------------7-4~------4---7---------------7---7/9---7.--------
A-----------------------------------------------------------------------
E-----------------------------------------------------------------------


e-----------------------------------------------------------------------
B-----------------------------------------------------------------------
G-----------------------------------------------------------------------
D-----------------------------------------------------------------------
A-7/9---7---7~----------------------------------------------------------
E-----------------------------------------------------------------------



Part 2

e-----------------------------------------------------------------------
B-----5---7~------7---5-7---7-5-----------------------------------------
G-6-------------------------------6---4h5h6-6~--------------------4~----
D-----------------------------------------------------------4---7-------
A-----------------------------------------------------------------------
E-----------------------------------------------------------------------


e-----------------------------------------------------------------------
B-----------------------------------------------------------------------
G-----------4---4/6-\-4-------------------4---4/6-\-4-------------------
D-4---4---7---------------7-4~------4---7---------------7---7/9---7.----
A-----------------------------------------------------------------------
E-----------------------------------------------------------------------


e-----------------------------------------------------------------------
B-----------------------------------------------------------------------
G-----------------------------------------------------------------------
D-------7---7~----------------------------------------------------------
A-7/9-------------------------------------------------------------------
E-----------------------------------------------------------------------


Part 3

e-----------------------------------------------------------------------
B-----6~--------5h6p5---6-----------------------------------------------
G---------------------7-----------------6(7)---6~----4h5h6-6~-----------
D-7-------------------------7~------7-----------------------------------
A-----------------------------------------------------------------------
E-----------------------------------------------------------------------


e-----------------------------------------------------------------------
B-----------------------------------------------------------------------
G-----5---5h6h7---5---4h5p4---------------------------------------------
D-7-------------------------7-------7-9/10\9~--------7-9h10p9-----------
A---------------------------------9----------------9--------------------
E-----------------------------------------------------------------------


e-----------------------------------------------------------------------
B-----------------------------------------------------------------------
G-----------------------------------------------------------------------
D-7h8h9---9~------------------------------------------------------------
A-----------------------------------------------------------------------
E-----------------------------------------------------------------------


Part 4

e------12---14~------14---12-14---14-12---------------------------------
B-14--------------------------------------14---12h13h14-14~-------------
G-----------------------------------------------------------------------
D-----------------------------------------------------------------------
A-----------------------------------------------------------------------
E-----------------------------------------------------------------------


e-----------------------------------------------------------------------
B------10-12~------------------10-12---12/14---12---10------------------
G-11----------------------11---------------------------11~--------------
D-----------------------------------------------------------------------
A-----------------------------------------------------------------------
E-----------------------------------------------------------------------


e-----------------------------------------------------------------------
B------10-12---12/14---12---10---12(13)(12)-10---12(13)-(12)---10--10~--
G-11--------------------------------------------------------------------
D-----------------------------------------------------------------------
A-----------------------------------------------------------------------
E-----------------------------------------------------------------------


Part 5

e-----------------------------------------------------------------------
B------9--------8h9p8----8----------------------------------------------
G------10-------------10--------------------9(10)---9~--7h8h9-9~--------
D-10-------------------------10~-------10-------------------------------
A-----------------------------------------------------------------------
E-----------------------------------------------------------------------


e-----------------------------------------------------------------------
B-----------------------------------------------------------------------
G------8---8/10---8---7h8p7---------------------------------------------
D-10------------------------10--------------10-12/13\12~------10-12~----
A-----------------------------------10/12-------------------------------
E-----------------------------------------------------------------------


e------16~------15-13-15------------------------------------------------
B-13-----------------------13~-------13-13-17(18)---17~--15h16h17-17~---
G-----------------------------------------------------------------------
D-----------------------------------------------------------------------
A-----------------------------------------------------------------------
E-----------------------------------------------------------------------


e-----------------------------------------------------------------------
B-13---16---16/18---16---15-\-13----------13-15(16)-(15)----------------
G--------------------------------------14-------------------------------
D-----------------------------------------------------------------------
A-----------------------------------------------------------------------
E-----------------------------------------------------------------------


e-----------------------------------------------------------------------
B----13-15(16)-(15)-------------13h14h15-15~----------------------------
G-14--------------------------------------------------------------------
D-----------------------------------------------------------------------
A-----------------------------------------------------------------------
E-----------------------------------------------------------------------


Part 6

e-----------------------------------------------------------------------
B-----8---10~------10---8-10---10-8-------------------------------------
G-9-----------------------------------9---7h8h9-9~-----------------7~---
D-----------------------------------------------------------7---10------
A-----------------------------------------------------------------------
E-----------------------------------------------------------------------


e-----------------------------------------------------------------------
B-----------------------------------------------------------------------
G------------7---7/9-\-7-----------------------7---7/9-\-7--------------
D-7---7---10---------------10-7~--------7---10---------------10---------
A-----------------------------------------------------------------------
E-----------------------------------------------------------------------


e-----------------------------------------------------------------------
B-----------------------------------------------------------------------
G-----------------------------------------------------------------------
D-10/12---10.----------10---10~-----------------------------------------
A--------------10/12----------------------------------------------------
E-----------------------------------------------------------------------


e-----------------------------------------------------------------------
B-----------------------------------------------------------------------
G-----5---7-----5-7---7/9-\-7---5-------5---5~--------------------------
D-5h7-------------------------------5h7---------------------------------
A-----------------------------------------------------------------------
E-----------------------------------------------------------------------


e-----------------------------------------------------------------------
B-------13---13/15-----13-15---15/17---15---13.--------13---13~---------
G-12h14------------------------------------------12h14------------------
D-----------------------------------------------------------------------
A-----------------------------------------------------------------------
E-----------------------------------------------------------------------


e-----------------------------------------------------------------------
B-8---------------------------------------------------------------------
G-9---------------------------------------------------------------------
D-10--------------------------------------------------------------------
A-10--------------------------------------------------------------------
E-8---------------------------------------------------------------------