20140414

NINE MILLION BICYCLES IN BEIJING INSTRUMENTAL GUITAR TAB


Katie Melua - Nine Million Bicycles in Beijing guitar cover by Phil McGarrick
Easy guitar instrumental with backing track
Download the TAB under the video



NINE MILLION BICYCLES IN BEIJING TAB


Part 1

e-----------------------------------------------------------------------
B-----5---7~------7---5-7---7-5-----------------------------------------
G-6-------------------------------6---4h5h6-6~--------------------4~----
D-----------------------------------------------------------4---7-------
A-----------------------------------------------------------------------
E-----------------------------------------------------------------------


e-----------------------------------------------------------------------
B-----------------------------------------------------------------------
G-------4---4/6-\-4-------------------4---4/6-\-4-----------------------
D-4---7---------------7-4~------4---7---------------7---7/9---7.--------
A-----------------------------------------------------------------------
E-----------------------------------------------------------------------


e-----------------------------------------------------------------------
B-----------------------------------------------------------------------
G-----------------------------------------------------------------------
D-----------------------------------------------------------------------
A-7/9---7---7~----------------------------------------------------------
E-----------------------------------------------------------------------



Part 2

e-----------------------------------------------------------------------
B-----5---7~------7---5-7---7-5-----------------------------------------
G-6-------------------------------6---4h5h6-6~--------------------4~----
D-----------------------------------------------------------4---7-------
A-----------------------------------------------------------------------
E-----------------------------------------------------------------------


e-----------------------------------------------------------------------
B-----------------------------------------------------------------------
G-----------4---4/6-\-4-------------------4---4/6-\-4-------------------
D-4---4---7---------------7-4~------4---7---------------7---7/9---7.----
A-----------------------------------------------------------------------
E-----------------------------------------------------------------------


e-----------------------------------------------------------------------
B-----------------------------------------------------------------------
G-----------------------------------------------------------------------
D-------7---7~----------------------------------------------------------
A-7/9-------------------------------------------------------------------
E-----------------------------------------------------------------------