20140805

PINK MARTINI NINNA NANNA TAB (REPRISE)

Pink Martini - Ninna Nanna arranged with a single classical guitar.
(All the nice jazzy chords in Cm are used here) brilliant version.
See the TAB under the video.



PINK MARTINI NINNA NANNA TAB

GP5 + GP6 + PDF >> 

Intro

e-------3---------------------------------------------------------------
B---3-4---6-4-6---6-----6.--3---3-----3-6-4-3-4---4-----4---4-----------
G-5---------------5-----5.--4-------4---------5---5-----5---5-----------
D-----------------6-----6.--3-----5-----------5---5-----5---5---5-------
A---------------5-----5-----------------------3-----3-----3---3---------
E-----------------------------3-----------------------3-----------------


e-----------------------------------------------------------------------
B-4-----4-3-----------------------3-4-6-4-3-4-3---3-----3-----1---------
G---5-------5-1---1-----1.--4---------------------2-----2-----2---------
D-----5-----------0-----0.--3---------------------------------1---------
A-------------------------------------------------3---3---3---3---------
E-----------------1---1-------3-----------------------------------------


Verse

e-----------------------------------------------------------------------
B-----6-----6.--3-----3-----3---3-----4-----4---4-----4-----4-----------
G-----5-----5.--4-----4-----4---4-----5-----5---5-----5-----5-----------
D-----6-----6.--3-----3-----3---3-----5-----5---5-----5-----5-----------
A-5-------5-----------------------3---------------3---------------------
E-----------------3-------3---3-----------3---3-----------3---3-2-------



e-----------------------------------------------------------------------
B-----1-----1---1---------------------6-----3---3-----4-----4-----------
G-----1-----1---1-----1-----1---------5-----4---4-----5-----5-----------
D-----0-----0---0-----0-----0---------5-----3---3-----5-----5-----------
A-----------------1-------1---1-0-6-----6-5---5---3-----------3-4-------
E-1-------1---1-------------------------------------------3-------------


e-----------------------------------------------------------------------
B-----6-----6.--3-----3-----3---3-----4-----4---4-----4-----4-----------
G-----5-----5.--4-----4-----4---4-----5-----5---5-----5-----5-----------
D-----6-----6.--3-----6-----6---6-----5-----5---5-----5-----5-----------
A-5-------5-----------------------3---------------3-----3---------------
E-----------------3-------3---3-----------3---3-----------3---3-2-------


e-----------------------------------------------------------------------
B-----3-----3.--3-----3-----3---3-----3-----1---1-----1-----1-----------
G-----1-----1.--4-----4-----4---4-----2-----2---2-----2-----2-----------
D-----0-----0.--3-----3-----3---3-----1-----1---1-----1-----1-----------
A---------------------------------3---------------3---------------------
E-1-------1-------3-------3---3-----------3---3-----------3---3-2-------



 

DOWNLOAD THE COMPLETE TAB HERE





  • click 'Buy Now' and send $6  (or 'Add to Cart' if you want to buy more tabs)
  • add your e-mail address
  • you will get a confirmation e-mail with your download links (in a few seconds)
  • download the full Guitar Pro 6 tab + GP5 + PDF
  • then start to learn the full song - that's all ...

IF YOU DIDN'T GET YOUR DOWNLOAD LINK, PLEASE CONTACT US HERE >>

SEND YOUR GUITAR TAB REQUEST HERE >>
MORE ON GUITAR TABS A-Z >>

Guitar Pro: a complete workshop for guitarists at an affordable price