20141207

THE CHANTAYS CRYSTAL T TAB (COVER BY THE DUO-TONES)

The Duo Tones cover Crystal T from the band called The Chantays.
Great song from California beach. Attention! The TAB covers the original acoustic album version but the guys play it almost note-for-note.


THE CHANTAYS CRYSTAL T TAB

PDF >>

Intro

  Am                                  Dm
e-----------------------------------------------------------------------
B-----------------------------------------------------------------------
G-----------------------------------------------------------------------
D-------2--------------------------------3------------------------------
A-3-2-3-----0----------------------3-2-3-----0--------------------------
E-----------------------------------------------------------------------

    Am                Dm              E
e-----------------------------------------------------------------------
B-----------------------------------------------------------------------
G-----------------------------------------------------------------------
D-------2-------------3-----2h3p2-0-------------------------------------
A-3-2-3-------3---0-------------------2---------------------------------
E---------------------------------------0-----0-1-3-1-0-----------------

  Am                               Dm
e-----------------------------------------------------------------------
B-----------------------------------------------------------------------
G-----------------------------------------------------------------------
D-------2--------------------------------3------------------------------
A-3-2-3-----0----------------------3-2-3-----0--------------------------
E-----------------------------------------------------------------------


  Am                    E         
e-----------------------------------------------------------------------
B-----------------------------------------------------------------------
G-----------------------------------------------------------------------
D-------2---------------0-----------------------------------------------
A-3-2-3-------3-----0-----------3---2-----------------------------------
E-----------------------------------0-----------------------------------

  Am
e-----------------------------------------------------------------------
B-----------------------------------------------------------------------
G-----------------------------------------------------------------------
D-7-7-7-7-7-7-7-7-7.----------------------------------------------------
A-7-7-7-7-7-7-7-7-7.----------------------------------------------------
E-5-5-5-5-5-5-5-5-5.----------------------------------------------------


Part 1

  Dm                                Gm
e-----------------------------------------------------------------------
B-----------------------------------------------------------------------
G-------2--------------------------------3------------------------------
D-3-2-3-------0--------------------3-2-3-------0------------------------
A-----------------------------------------------------------------------
E-----------------------------------------------------------------------

    Dm                  Gm          A7
e-----------------------------------------------------------------------
B-----------------------------------------------------------------------
G-------2---------------3-----2-----0-----------------------------------
D-3-2-3-------3-----0-------------------2-------------------------------
A---------------------------------------------0-------------------------
E-----------------------------------------------------------------------

  Dm                               Gm
e-----------------------------------------------------------------------
B-----------------------------------------------------------------------
G-------2--------------------------------3------------------------------
D-3-2-3-------0--------------------3-2-3-------0------------------------
A-----------------------------------------------------------------------
E-----------------------------------------------------------------------

  Dm                    A7              Dm
e-----------------------------------------------------------------------
B-----------------------------------------------------------------------
G-------2---------------0-----------------------------------------------
D-3-2-3-------3-----0---------3---------0-------------------------------
A-----------------------------------0-----------------------------------
E-----------------------------------------------------------------------


Solo 1

                            B                             Gm
e-----------------------------------------------------------------------
B-------------------------------------------------6---5-----------------
G-------------5---5-5-6---6/7-------------------7---------7-------------
D-0-2-3-5-6-7---7-------------------------8-7-8-------------------------
A-----------------------------------------------------------------------
E-----------------------------------------------------------------------

                C                               A
e-----------------------------------------------------------------------
B-----8---6h8p6-5-----------------------5-8---6-5-----------------------
G-7-7-------------5-----5-------------5---------------7-6---------------
D---------------------5-------------5---------------------8.--7---------
A---------------------------------7-------------------------------------
E---------------------------------8-------------------------------------

          B                                  Dm
e-----------------------------------------------------------------------
B--------------------------------------6-8-6-8(10)(8)p6-----------------
G-------------------5---5h7----------7------------------7---------------
D-7-5-7-7h8-----------8-------------------------------------------------
A-----------------------------------------------------------------------
E-----------------------------------------------------------------------

                Gm              A                 Dm
e-----------------------------------------------------------------------
B-----------------------------------------------------------------------
G-7p5---5-----------------------------------------------------5---7-\---
D-----7-----7.--7h8p7p5---5-----------------------------5-6-7-----------
A-----------------------8---8.--7.--5.--4-----4---5-7-8-----------------
E-------------------------------------------5---------------------------


Part 2

  Am                                   Dm
e-----------------------------------------------------------------------
B-----------------------------------------------------------------------
G-----------------------------------------------------------------------
D-------2-------------------------------3-------------------------------
A-3-2-3-------0-------------------3-2-3-------0-------------------------
E-----------------------------------------------------------------------

  Am                    Dm                E
e-----------------------------------------------------------------------
B-----------------------------------------------------------------------
G-----------------------------------------------------------------------
D-------2---------------3-----2h3p2---0---------------------------------
A-3-2-3-------3-----0---------------------2-----------------------------
E-----------------------------------------------0-1-3-1-0---------------

  Am                                 Dm
e-----------------------------------------------------------------------
B-----------------------------------------------------------------------
G-----------------------------------------------------------------------
D-------2-------------------------------3-------------------------------
A-3-2-3-------0-------------------3-2-3-------0-------------------------
E-----------------------------------------------------------------------

   Am                   E7              Am
e-----------------------------------------------------------------------
B-----------------------------------------------------------------------
G-----------------------------------------------------------------------
D-------2---------------0-----------------------------------------------
A-3-2-3-------3-----0---------3---------0-------------------------------
E-----------------------------------0-----------------------------------


then Part 1 again


Solo 2

                    B                                  Gm
e--------------------------------6.--5--h6p5----------------------------
B------------------------------6-------------8p6---6-6h8----------------
G-------------5---5h7--------7-------------------7----------------------
D-0-2-3-5-6-7---7----------8--------------------------------------------
A-----------------------------------------------------------------------
E-----------------------------------------------------------------------

                                                C
e-----------------------------------------------------------------------
B-8p6-------------------------------------------------------------------
G-----7.--6p5p3.------------------3p2---------5-------------------------
D-----------------5p3-----3h5---5-----5-3-2h5---------------------------
A---------------------5.------------------------3-----------------------
E-----------------------------------------------------------------------

                            A7
e-----------------------------------------------------------------------
B-------------------------------------------10p8---8---8h10-------------
G-------5---------5--------------------9---------9----------------------
D-----5-5h7p5---5---8-7-5-5h7---7/11-----11-----------------------------
A-5/7---------7---------------------------------------------------------
E-----------------------------------------------------------------------

 B
e-----------------------------------------------------------------------
B-11p10-----------------------------------------------------------------
G-------12-p10-10h12-p10------------------------------------------------
D------------------------12-10-10h12-p10--------------------------------
A----------------------------------------13-12-10----10-11--------------
E-------------------------------------------------13--------------------

  Dm
e----------------------------------10----------10.----------------------
B-------------------------------10----13p10-13--------------------------
G---------------------10-12(14)-----------------------------------------
D---------10----10-12---------------------------------------------------
A-11h12------12---------------------------------------------------------
E-----------------------------------------------------------------------

    Gm                    A7                 Dm
e-10---8.---6.-------------------------------------------------8.--8h10\
B----------------10-8-6-8h10---8-h10p8p6----------------8-9-10----------
G----------------------------------------9---7---7h9h10-----------------
D-----------------------------------------------------------------------
A-----------------------------------------------------------------------
E-----------------------------------------------------------------------

            B                                               Gm
e----10~----10~----10h13p10----10~----10h13p10----10-13-10-13/15~--13~--
B---------------------------13-----------------13-----------------------
G-----------------------------------------------------------------------
D-----------------------------------------------------------------------
A-----------------------------------------------------------------------
E-----------------------------------------------------------------------

                                    C                   
e-----------------------------------------------------------------------
B-15-13-------13h15-15-15.--13.--11--------13------13-13----13---13-----
G-------15-14-14h15-15-15.--14.--12--------12---12-12-12-12-12---12-----
D------------------------------------------14---14-------14------14-----
A-----------------------------------------------------------------------
E-----------------------------------------------------------------------

  C   B   Bb  A7
e-----------------------------------------------------------------------
B-13.-12.-11.-10-----10-8-----------------------------------------------
G-12.-11.-10.--9----------9-8-7-5h6-------------------------------------
D-14.-13.-12.-11--------------------7-5---5-6-7-------------------------
A---------------------------------------7-------------------------------
E-----------------------------------------------------------------------

   B
e-----------------------------------------------------------------------
B-----------------------------------------------------------------------
G------7-----5-----3-------2--------------------------------------------
D--7/8---8-7---7-5---5-3-----0-------0----------------------------------
A------------------------------3-1-0------------------------------------
E-----------------------------------------------------------------------

  Dm                               Gm                   A7
e-----------------------------------6.--5--h6p5-------------------------
B---------------------------------6-------------8-6-5---5-----5---------
G-----------------5h7p5---5-----7---------------------7-----7---6---6---
D--------5--6--7--------7-----8-----------------------------------7-----
A-5-7-8-----------------------------------------------------------------
E-----------------------------------------------------------------------

  Dm
e-----------------------------------------------------------------------
B-----------------------------------------------------------------------
G--7-5------------------------------------------------------------------
D------7-6-5------------------------------------------------------------
A------------8-5---5-\\\------------------------------------------------
E----------------8------------------------------------------------------


~ Part 2

  Am                              Dm
e-----------------------------------------------------------------------
B-----------------------------------------------------------------------
G-----------------------------------------------------------------------
D-------2-------------------------------3-------------------------------
A-3-2-3-------0-------------------3-2-3-------0-------------------------
E-----------------------------------------------------------------------

  Am                    Dm                E  
e-----------------------------------------------------0-----------------
B-----------------------------------------------------0-----------------
G-----------------------------------------------------1-----------------
D-------2---------------3-----2h3p2---0---------------2-----------------
A-3-2-3-------3-----0---------------------2-----------------------------
E-----------------------------------------------0-----------------------

  Am                                  Dm
e-------------------0-------------------------------1-------------------
B-------------------1-------------------------------3-------------------
G-------------------2-------------------------------2-------------------
D-------2-----------2-------------------3-----------0-------------------
A-3-2-3-------0-------------------3-2-3-------0-------------------------
E-----------------------------------------------------------------------

  Am                    E7              Am
e-------------------------------------------------------0---------------
B-------------------------------------------------------1---------------
G-------------------------------------------------------2---------------
D-------2---------------0-------------------------------2---------------
A-3-2-3-------3-----0---------3---------0-------------------------------
E-----------------------------------0-----------------------------------


The End

  Am                    Dm              G
e-----------------------------------------------------------------------
B-----------------------------------------------------------------------
G---------------------------------------0-------------------------------
D-------2---------------3---------------------0-------------------------
A-2-3-2-------3-----0.--------3-----0.--------------2.------------------
E-----------------------------------------------------------------------

  E               F               E               Am
e-------------------------------------------------5---------------------
B---------------------------------0-----------------8-5-----------------
G-1---------------2---------------------1---------------8-7-5-----------
D-------2---------------3---------------------2.--------------7-5-7.----
A-------------2.--------------3.----------------------------------------
E-----------------------------------------------------------------------