20141207

THE CHANTAYS CRYSTAL T TAB (GUITAR INSTRUMENTAL)


The Chantays - Crystal T cover played by the band called The Duo Tones
This TAB covers the original acoustic album version
The boys play it almost note-for-note here



THE CHANTAYS CRYSTAL T TAB


Intro

  Am                                  Dm
e-----------------------------------------------------------------------
B-----------------------------------------------------------------------
G-----------------------------------------------------------------------
D-------2--------------------------------3------------------------------
A-3-2-3-----0----------------------3-2-3-----0--------------------------
E-----------------------------------------------------------------------

    Am                Dm              E
e-----------------------------------------------------------------------
B-----------------------------------------------------------------------
G-----------------------------------------------------------------------
D-------2-------------3-----2h3p2-0-------------------------------------
A-3-2-3-------3---0-------------------2---------------------------------
E---------------------------------------0-----0-1-3-1-0-----------------

  Am                               Dm
e-----------------------------------------------------------------------
B-----------------------------------------------------------------------
G-----------------------------------------------------------------------
D-------2--------------------------------3------------------------------
A-3-2-3-----0----------------------3-2-3-----0--------------------------
E-----------------------------------------------------------------------


  Am                    E         
e-----------------------------------------------------------------------
B-----------------------------------------------------------------------
G-----------------------------------------------------------------------
D-------2---------------0-----------------------------------------------
A-3-2-3-------3-----0-----------3---2-----------------------------------
E-----------------------------------0-----------------------------------

  Am
e-----------------------------------------------------------------------
B-----------------------------------------------------------------------
G-----------------------------------------------------------------------
D-7-7-7-7-7-7-7-7-7.----------------------------------------------------
A-7-7-7-7-7-7-7-7-7.----------------------------------------------------
E-5-5-5-5-5-5-5-5-5.----------------------------------------------------


Part 1

  Dm                                Gm
e-----------------------------------------------------------------------
B-----------------------------------------------------------------------
G-------2--------------------------------3------------------------------
D-3-2-3-------0--------------------3-2-3-------0------------------------
A-----------------------------------------------------------------------
E-----------------------------------------------------------------------

    Dm                  Gm          A7
e-----------------------------------------------------------------------
B-----------------------------------------------------------------------
G-------2---------------3-----2-----0-----------------------------------
D-3-2-3-------3-----0-------------------2-------------------------------
A---------------------------------------------0-------------------------
E-----------------------------------------------------------------------