20150215

ROGER PAULSSON VALLA BAY TAB


Great guitar tune by Roger Paulsson. The song is called Valla Bay.
Grab your Fender Stratocasters and turn up the reverb !
See the TAB under the video.



ROGER PAULSSON VALLA BAY TAB

PDF >>

Part 1

  A                        F#m
e-10/12-12-12-10.--9----9--7-9--7-5-------------------------------------
B-12/14-14-14-12.--10---10-9-10-9-7-------------------------------------
G-----------------------------------------------------------------------
D-----------------------------------------------------------------------
A-----------------------------------------------------------------------
E-----------------------------------------------------------------------

  A                        F#m
e-10/12-12-12-10.--9----9--7-9--7-5-------------------------------------
B-12/14-14-14-12.--10---10-9-10-9-7-------------------------------------
G-----------------------------------------------------------------------
D-----------------------------------------------------------------------
A-----------------------------------------------------------------------
E-----------------------------------------------------------------------



Part 2

      A               D                B               E
e-----------------------------------------------------------------------
B-----------------------------------------------------------------------
G---------------2--------------------------------4----------------------
D-2---------2-------2-4----------2/4---------4-------4-6----------------
A---5-4------------------------------7-6--------------------------------
E-----------------------------------------------------------------------



        C#7             F#m              Bm               E
e-----------------------------------------------------------------------
B-----------------------------------------------------------------------
G-----------------6--------------------6-9.---7-7---------6.--4-4-------
D-4/6---------6-------6-7-----7p6--6-7---11.--9-9---------7.--6-6-------
A-----9-8------------------------9--------------------7-----------------
E-----------------------------------------------------------------------

      A               D               B               E
e---------------5-------------------------------7-----------------------
B-5---------5-------5-7---------5/7---------7-------7-9-----------------
G---7-6-----------------------------9-8---------------------------------
D-----------------------7-------------------------------9---------------
A-----------------------------------------------------------------------
E-----------------------------------------------------------------------

         C#7              F#m                  Bm              
e-------------------9------------------------9-12.--10-10---------------
B-7/9-----------9-------9-10-----10p9---9-10---14.--12-12---------------
G-----11-10--------------------------11---------------------------------
D-----------------------------------------------------------------------
A-----------------------------------------------------------------------
E-----------------------------------------------------------------------

      E                A
e-----9.---7-7----------------------------------------------------------
B-----10.--9-9---------10-----------------------------------------------
G-9----------------9---9------------------------------------------------
D----------------------11-----------------------------------------------
A-----------------------------------------------------------------------
E-----------------------------------------------------------------------



Part 3

            F#m                       A
e-----------------------------------------------------------------------
B-----------------------------------------------------------------------
G-4/6\4---6-----------------1h2p1---2-----------------------------------
D-------7---4---------------------4---------2---------------------------
A-------------------------------------4---------------------------------
E-----------------------------------------------------------------------

            F#m            B               E
e-----------------------------------------------------------------------
B-----------------------------------------------------------------------
G-4/6\4---6------------4-----------4-----------------------4------------
D-------7---4--------------------4-----4---6-------4-----6--------------
A--------------------7---7-6--------------------------------------------
E-----------------------------------------------------------------------

      A               D               B               E
e---------------5-------------------------------7-----------------------
B-5---------5-------5-7---------5/7---------7-------7-9-----------------
G---7-6-----------------------------9-8---------------------------------
D-----------------------7-------------------------------9---------------
A-----------------------------------------------------------------------
E-----------------------------------------------------------------------

         C#7              F#m                  Bm
e-------------------9------------------------9-12.--10-10---------------
B-7/9-----------9-------9-10-----10p9---9-10---14.--12-12---------------
G-----11-10--------------------------11---------------------------------
D-----------------------------------------------------------------------
A-----------------------------------------------------------------------
E-----------------------------------------------------------------------

      E                A
e-----9.---7-7----------------------------------------------------------
B-----10.--9-9---------10-----------------------------------------------
G-9----------------9---9------------------------------------------------
D----------------------11-----------------------------------------------
A-----------------------------------------------------------------------
E-----------------------------------------------------------------------



Part 4

                F#m                          A
e-------------9---------------------------------------------------------
B-12/14\12-10-------------------9-10p9----10----------------------------
G---------------11---------------------11-----------9-------------------
D--------------------------------------------11-------------------------
A-----------------------------------------------------------------------
E-----------------------------------------------------------------------

                F#m              B               E               F
e-------------9--------------7-----------7---------------7-------8------
B-12/14\12-10--------------------------7-----7---9-------9-------10-----
G---------------11---------9---9-8---------------9----------------------
D-----------------------------------------------------------------------
A-----------------------------------------------------------------------
E-----------------------------------------------------------------------

      Bb              D#               C               F
e---------------6--------------------------------8----------------------
B-6---------6-------6-8---------6/8----------8-------8-10---------------
G---8-7-----------------------------10-9--------------------------------
D-----------------------8---------------------------------10------------
A-----------------------------------------------------------------------
E-----------------------------------------------------------------------

         D7                  Gm                      Cm
e--------------------10---------------------------10-13.--11-11---------
B-8/10----------10--------10-11-----11p10---10-11----15.--13-13---------
G-----12-11------------------------------12-----------------------------
D-----------------------------------------------------------------------
A-----------------------------------------------------------------------
E-----------------------------------------------------------------------

       F
e------10.---8--8-------------------------------------------------------
B------11.---10-10------------------------------------------------------
G-10--------------------------------------------------------------------
D-----------------------------------------------------------------------
A-----------------------------------------------------------------------
E-----------------------------------------------------------------------



Part 5

      Bb              D#               C               F
e-----------------------------------------------------------------------
B-----------------------------------------------------------------------
G---------------3--------------------------------5----------------------
D-3---------3-------3-5----------3/5---------5-------5-7----------------
A---6-5------------------------------8-7--------------------------------
E-----------------------------------------------------------------------

         D7              Gm                Cm                 F
e-----------------------------------------------------------------------
B-----------------------------------------------------------------------
G------------------7---------------------7-10.--8--8----------7.--5-5---
D-5/7----------7-------7-8-----8p7---7-8---12.--10-10---------8.--7-7---
A-----10-9------------------------10----------------------8-------------
E-----------------------------------------------------------------------

        Bb   Gm                       Cm                  F
e----------------------------------10-13.--11-11----------10.--8--8-----
B--------------------11p10---10-11----15.--13-13----------11.--10-10----
G-------3-----------------12-------------------------10-----------------
D---3---3---------------------------------------------------------------
A-------5---------------------------------------------------------------
E-----------------------------------------------------------------------

       F#        D#m               Bb                   Bb
e----------------8---------6---8.--10-------------------18--------------
B------11--------7---------7-------11-----------13/15-------------------
G-10.--11--------8---------8-------10-----------------------------------
D------11---------------------------------------------------------------
A-----------------------------------------------------------------------
E-----------------------------------------------------------------------




Chords

   A     F#m     D      B      E     C#7     Bm
e--0------2------2------2------0------x------2--------------------------
B--2------2------3------4------0------2------3--------------------------
G--2------2------2------4------1------4------4--------------------------
D--2------4------0------4------2------3------4--------------------------
A--0------4-------------2------2------4------2--------------------------
E---------2--------------------0------x---------------------------------


   F      Bb     D#     C      D7     Gm     Cm     F#    D#m
e--1------1------6------3------x------3------3------2------6------------
B--1------3------8------5------3------3------4------2------7------------
G--2------3------8------5------5------3------5------3------8------------
D--3------3------8------5------4------5------5------4------8------------
A--3------1------6------3------5------5------3------4------6------------
E--1-------------6-------------x------3-------------2-------------------