20150215

ROGER PAULSSON VALLA BAY GUITAR TAB


Roger Paulsson - Valla Bay vintage instrumental guitar song
Beautiful guitar instrumental with backing track
Download the TAB under the video



ROGER PAULSSON VALLA BAY TAB


Part 1

  A                        F#m
e-10/12-12-12-10.--9----9--7-9--7-5-------------------------------------
B-12/14-14-14-12.--10---10-9-10-9-7-------------------------------------
G-----------------------------------------------------------------------
D-----------------------------------------------------------------------
A-----------------------------------------------------------------------
E-----------------------------------------------------------------------

  A                        F#m
e-10/12-12-12-10.--9----9--7-9--7-5-------------------------------------
B-12/14-14-14-12.--10---10-9-10-9-7-------------------------------------
G-----------------------------------------------------------------------
D-----------------------------------------------------------------------
A-----------------------------------------------------------------------
E-----------------------------------------------------------------------



Part 2

      A               D                B               E
e-----------------------------------------------------------------------
B-----------------------------------------------------------------------
G---------------2--------------------------------4----------------------
D-2---------2-------2-4----------2/4---------4-------4-6----------------
A---5-4------------------------------7-6--------------------------------
E-----------------------------------------------------------------------



        C#7             F#m              Bm               E
e-----------------------------------------------------------------------
B-----------------------------------------------------------------------
G-----------------6--------------------6-9.---7-7---------6.--4-4-------
D-4/6---------6-------6-7-----7p6--6-7---11.--9-9---------7.--6-6-------
A-----9-8------------------------9--------------------7-----------------
E-----------------------------------------------------------------------

      A               D               B               E
e---------------5-------------------------------7-----------------------
B-5---------5-------5-7---------5/7---------7-------7-9-----------------
G---7-6-----------------------------9-8---------------------------------
D-----------------------7-------------------------------9---------------
A-----------------------------------------------------------------------
E-----------------------------------------------------------------------

         C#7              F#m                  Bm              
e-------------------9------------------------9-12.--10-10---------------
B-7/9-----------9-------9-10-----10p9---9-10---14.--12-12---------------
G-----11-10--------------------------11---------------------------------
D-----------------------------------------------------------------------
A-----------------------------------------------------------------------
E-----------------------------------------------------------------------

      E                A
e-----9.---7-7----------------------------------------------------------
B-----10.--9-9---------10-----------------------------------------------
G-9----------------9---9------------------------------------------------
D----------------------11-----------------------------------------------
A-----------------------------------------------------------------------
E-----------------------------------------------------------------------