20150308

PHIL MCGARRICK ELEANOR RIGBY TAB (HANK MARVIN VERSION)

Phil McGarrick plays an instrumental version of Eleanor Rigby (The Beatles)
This instrumental version was arranged originally by Hank Marvin.
See the TAB under the video.



PHIL MCGARRICK ELEANOR RIGBY TAB

PDF >>

Part 1

e-----------------------------------------------------------------------
B-8h10~---10~-------8h10~---10~-------13~-----12~---------8h10~---10~---
G-----------------------------------------------------------------------
D-----------------------------------------------------------------------
A-----------------------------------------------------------------------
E-----------------------------------------------------------------------



Part 2

e-----------------------------------------------------------------------
B------------------------5-8~---7-5-7---5h7p5---5~----------------------
G-5-7-7/9-5'---------5-7----------------------7------7-5-7~-------------
D-------------7~--------------------------------------------------------
A-----------------------------------------------------------------------
E-----------------------------------------------------------------------


e-----------------------------------------------------------------------
B-----5-6.---5----------------------------------------------------------
G-5-7---7.--------------------------------------------------------------
D-----------------------------------------------------------------------
A-----------------------------------------------------------------------
E-----------------------------------------------------------------------



e-----------------------------------------------------------------------
B------------------------5-8~---7-5-7---5h7p5---5~----------------------
G-5-7-7/9-5'---------5-7----------------------7------7-5-7---(8)(7)~----
D-------------7~--------------------------------------------------------
A-----------------------------------------------------------------------
E-----------------------------------------------------------------------


e-----------------------------------------------------------------------
B-----5-6.---5----------------------------------------------------------
G-5-7---7.---5----------------------------------------------------------
D-----------------------------------------------------------------------
A-----------------------------------------------------------------------
E-----------------------------------------------------------------------



Part 3

e-----------------------------------------------------------------------
B-----------------------------------8/10-8/10---------------------------
G-7/9\7-5-7---7/9-5'------------------------------7h9-7~----------------
D----------------------7~------------------------------------10-7~------
A-----------------------------------------------------------------------
E-----------------------------------------------------------------------


e-----------------------------------------------------------------------
B---------------------------------------13----10---5---3----------------
G-7/9\7-5-7---7/9-5'----------------------------------------------------
D----------------------7~-----------/10----10----5---3------------------
A-----------------------------------------------------------------------
E-----------------------------------------------------------------------


e----------10-----------------------------------------------------------
B-10-12-13----13-12-10----------10-12-10h12p10---------10---------------
G----------------------12-10-12----------------12-10-9-10---------------
D-----------------------------------------------------------------------
A-----------------------------------------------------------------------
E-----------------------------------------------------------------------


e-----------------------------------------------------------------------
B-12-13-13/15---13.--12\10-10.--8\6-------------------------------------
G-12-14-14/16---14.--12\10-10.--9\7-5~----------------------------------
D-----------------------------------------------------------------------
A-----------------------------------------------------------------------
E-----------------------------------------------------------------------


e-----------------------------------------------------------------------
B-10\9-10~--------12-13-13/15---13---12\10-10.--8\6---------------------
G-10\9-10~--------12-14-14/16---14---12\10-10.--9\7-5~------------------
D-----------------------------------------------------------------------
A-----------------------------------------------------------------------
E-----------------------------------------------------------------------


e-----------------------------------------------------------------------
B-----------------------------------------------------------------------
G-----------------------------------------------------------------------
D-----5'----------------------------------------------------------------
A-5h7--------7-----\----------------------------------------------------
E-----------------------------------------------------------------------



Part 4

e-----------------------------------------------------------------------
B-----------------------------------------------------------------------
G-----------------------------------------------------------------------
D---0-2--------------2-0-5'---4-2-4---2-0-2---0---0---------------------
A-3-----3'---0-----3----------------------------3-----------------------
E-----------------------------------------------------------------------


e-----------------------------------------------------------------------
B-----------------------------------------------------------------------
G-----------------------------------------------------------------------
D---0-2-3.--2.----------------------------------------------------------
A-3---------------------------------------------------------------------
E-----------------------------------------------------------------------


e-----------------------------------------------------------------------
B-----------------------------------------------------------------------
G-----------------------------------------------------------------------
D---0-2--------------2-0-5'---4-2-4---2h4p2p0-2---0---0-----------------
A-3-----3'---0-----3--------------------------------3-------------------
E-----------------------------------------------------------------------


e-----------------------------------------------------------------------
B-----------------------------------------------------------------------
G-----------------------------------------------------------------------
D---0-2-3.--2.----------------------------------------------------------
A-3---------------------------------------------------------------------
E-----------------------------------------------------------------------



Part 5

e-----------------------------------------------------------------------
B-----------------------------------------------------------------------
G-7/9\7-5-7---7/9-5'----------------------------------------------------
D----------------------7~-----------------------------------------------
A-----------------------------------------------------------------------
E-----------------------------------------------------------------------


e-----------------------------------------------------------------------
B-8/10-8/10----------------------------7.--5----------------------------
G---------------7h9-7~-----------------7.--5----------------------------
D--------------------------10-7~----------------------------------------
A-----------------------------------------------------------------------
E-----------------------------------------------------------------------


e-----------------------------------------------------------------------
B-----------------------------------------------------------------------
G-7/9\7-5-7---7/9-5'----------------------------------------------------
D----------------------7~-----------------------------------------------
A-----------------------------------------------------------------------
E-----------------------------------------------------------------------


e-----------------------------10----------------------------------------
B----13--10---5---3-/-10-12-13--13-12-10--------10-12-10h12p10----------
G---------------------------------------12-10-12--------------12-10-9---
D-/10--10---5---3-------------------------------------------------------
A-----------------------------------------------------------------------
E-----------------------------------------------------------------------


e-----------------------------------------------------------------------
B-----------------------------------------------------------------------
G----9-10-12-10-9-------------------------------------------------------
D-12--------------12-10-9-10-7-9-6~-------------------------------------
A-----------------------------------------------------------------------
E-----------------------------------------------------------------------


e-----------------------------------------------------------------------
B-10~--------12-13-13/15---13---12\10-10.--8\6--------------------------
G-10~--------12-14-14/16---14---12\10-10.--9\7-5~-----------------------
D-----------------------------------------------------------------------
A-----------------------------------------------------------------------
E-----------------------------------------------------------------------


e-----------------------------------------------------------------------
B-10\9-10~--------12-13-13/15---13---12\10-10.--8\6---------------------
G-10\9-10~--------12-14-14/16---14---12\10-10.--9\7-5~------------------
D-----------------------------------------------------------------------
A-----------------------------------------------------------------------
E-----------------------------------------------------------------------


e-----------------------------------------------------------------------
B-----------------------------------------------------------------------
G-----------------------------------------------------------------------
D-----5'----------------------------------------------------------------
A-5h7--------7----------------------------------------------------------
E-----------------------------------------------------------------------



Part 6

e-----------------------------------------------------------------------
B-----------------------------------------------------------------------
G-7/9\7-5-7---7/9-5'----------------------------------------------------
D----------------------7~-----------------------------------------------
A-----------------------------------------------------------------------
E-----------------------------------------------------------------------


e----------------------------------------12---\-------------------------
B-9(10)-9(10)----------------------------13---\-------------------------
G-----------------9-7---9p7--------------14---\-------------------------
D---------------------------10-7~---------------------------------------
A-----------------------------------------------------------------------
E-----------------------------------------------------------------------


e-----------------------------------------------------------------------
B-15/17\15-13-15---15/17-13'--------------------------------------------
G------------------------------14~--------------------------------------
D-----------------------------------------------------------------------
A-----------------------------------------------------------------------
E-----------------------------------------------------------------------


e-----------------------------------------0-----------------------------
B-----13-----10------5-----3------------------0-------------------------
G-----------------------------------------------2-----------------------
D-/10----10------/5-----3-------------------------2---------------------
A---------------------------------------------------0-------------------
E-----------------------------------------------------------------------