20150308

PHIL MCGARRICK ELEANOR RIGBY TAB (INSTRUMENTAL GUITAR TABS)

The Beatles - Eleanor Rigby instrumental guitar cover played by Phil McGarrick
This version was originally arranged by Hank Marvin
Download the TAB under the video



ELEANOR RIGBY INSTRUMENTAL TAB


Part 1

e-----------------------------------------------------------------------
B-8h10~---10~-------8h10~---10~-------13~-----12~---------8h10~---10~---
G-----------------------------------------------------------------------
D-----------------------------------------------------------------------
A-----------------------------------------------------------------------
E-----------------------------------------------------------------------



Part 2

e-----------------------------------------------------------------------
B------------------------5-8~---7-5-7---5h7p5---5~----------------------
G-5-7-7/9-5'---------5-7----------------------7------7-5-7~-------------
D-------------7~--------------------------------------------------------
A-----------------------------------------------------------------------
E-----------------------------------------------------------------------


e-----------------------------------------------------------------------
B-----5-6.---5----------------------------------------------------------
G-5-7---7.--------------------------------------------------------------
D-----------------------------------------------------------------------
A-----------------------------------------------------------------------
E-----------------------------------------------------------------------



e-----------------------------------------------------------------------
B------------------------5-8~---7-5-7---5h7p5---5~----------------------
G-5-7-7/9-5'---------5-7----------------------7------7-5-7---(8)(7)~----
D-------------7~--------------------------------------------------------
A-----------------------------------------------------------------------
E-----------------------------------------------------------------------


e-----------------------------------------------------------------------
B-----5-6.---5----------------------------------------------------------
G-5-7---7.---5----------------------------------------------------------
D-----------------------------------------------------------------------
A-----------------------------------------------------------------------
E-----------------------------------------------------------------------



Part 3

e-----------------------------------------------------------------------
B-----------------------------------8/10-8/10---------------------------
G-7/9\7-5-7---7/9-5'------------------------------7h9-7~----------------
D----------------------7~------------------------------------10-7~------
A-----------------------------------------------------------------------
E-----------------------------------------------------------------------


e-----------------------------------------------------------------------
B---------------------------------------13----10---5---3----------------
G-7/9\7-5-7---7/9-5'----------------------------------------------------
D----------------------7~-----------/10----10----5---3------------------
A-----------------------------------------------------------------------
E-----------------------------------------------------------------------


e----------10-----------------------------------------------------------
B-10-12-13----13-12-10----------10-12-10h12p10---------10---------------
G----------------------12-10-12----------------12-10-9-10---------------
D-----------------------------------------------------------------------
A-----------------------------------------------------------------------
E-----------------------------------------------------------------------