20150412

THE NIGHTRUNNERS IDYLLE TAB (COVER BY GIORGIO ZIZZO)

Giorgio Zizzo plays Idylle by The Nightrunners.
Great guitar instrumental song.
See the TAB under the video.


THE NIGHTRUNNERS IDYLLE TAB

PDF >>

Chords

  A      F#m      Bm      E       D       Dm      B       E7     F7
e-0-------2-------2-------0-------2-------1-------2---------------------
B-2-------2-------3-------0-------3-------3-------4-------5------6------
G-2-------2-------4-------1-------2-------2-------4-------7------8------
D-2-------4-------4-------2-------0-------0-------4-------6------7------
A-0-------4-------2-------2-----------------------2-------7------8------
E---------2---------------0---------------------------------------------



Part 1
                    A                                   F#m       Bm
e-----9-7---5-----------------------------9-7---5-----------------------
B-5-----------7---5-------------------5-----------7---5-7.--7~----------
G-------------------6---6~----------------------------------------------
D-----------------------------------------------------------------------
A-----------------------------------------------------------------------
E-----------------------------------------------------------------------

                      E                                 A    D    A
e-----10-9---7------------------------------9---7-9---7-5~--------------
B-7------------10---7-9.--9~--------------9-----------------------------
G-------------------------------------9---------------------------------
D-----------------------------------------------------------------------
A-----------------------------------------------------------------------
E-----------------------------------------------------------------------




                    A                                   F#m       Bm
e-----9-7---5-----------------------------9-7---5-----------------------
B-5-----------7---5-------------------5-----------7---5-7.--7~----------
G-------------------6---6~----------------------------------------------
D-----------------------------------------------------------------------
A-----------------------------------------------------------------------
E-----------------------------------------------------------------------

                      E                                 A    D    A
e-----10-9---7------------------------------9---7-9---7-5~--------------
B-7------------10---7-9---9~--------------9-----------------------------
G-------------------------------------9---------------------------------
D-----------------------------------------------------------------------
A-----------------------------------------------------------------------
E-----------------------------------------------------------------------



Part 2
                    D
e-5.--7-5.----7.--5-----------------------------------------------------
B-------------------7.--7.----------------------------------------------
G-----------------------------------------------------------------------
D-----------------------------------------------------------------------
A-----------------------------------------------------------------------
E-----------------------------------------------------------------------

          Dm          A
e-5-7.--5-8.--7-5.------------------------------------------------------
B-------------------7-5.--------5-------8.--7-5.------------------------
G---------------------------6.----6.------------------------------------
D-----------------------------------------------------------------------
A-----------------------------------------------------------------------
E-----------------------------------------------------------------------

                       B
e------7----------------------------------------------------------------
B-10.----10.--10-7.----7.--7.-------------------------------------------
G--------------------9--------------------------------------------------
D-----------------------------------------------------------------------
A-----------------------------------------------------------------------
E-----------------------------------------------------------------------

                       E7     F7     E7
e--------------9-9.--8-7------------------------------------------------
B-7-7.--9-10.-----------------------------------------------------------
G-----------------------------------------------------------------------
D-----------------------------------------------------------------------
A-----------------------------------------------------------------------
E-----------------------------------------------------------------------



Part 3
                    A                                    F#m     Bm
e-----------------------------------------------------------------------
B-----------------------------------------------------------------------
G-----6-4---2------------------------------6-4---2----------------------
D-2-----------4---2--------------------2-----------4---2-4.--4~---------
A-------------------4---4~----------------------------------------------
E-----------------------------------------------------------------------

                    E                                    A    D    A
e-----------------------------------------------------------------------
B-----------------------------------------------------------------------
G-----7-6---4--------------------------------6---4-6---4-2~-------------
D-4-----------7---4-6---6~-----------------6----------------------------
A--------------------------------------7--------------------------------
E-----------------------------------------------------------------------



Part 4
                    D
e-----------------------------------------------------------------------
B-----------------------------------------------------------------------
G-2.--4-2.----4.--2-----------------------------------------------------
D-------------------4.--4.----------------------------------------------
A-----------------------------------------------------------------------
E-----------------------------------------------------------------------

          Dm          A
e-----------------------------------------------------------------------
B-----------------------------------------------------------------------
G-2-4.--2-5.--4-2.------------------------------------------------------
D-------------------4-2.--------2-----2-5.--4-2.------------------------
A---------------------------4.----4-------------------------------------
E-----------------------------------------------------------------------

                      B
e-----------------------------------------------------------------------
B-----------------------------------------------------------------------
G-2.--4-2.--2-----------------------------------------------------------
D-------------4.--2-3/4-4.----------------------------------------------
A-----------------------------------------------------------------------
E-----------------------------------------------------------------------

                      E7   F7   E7
e-----------------------------------------------------------------------
B-----------------------------------------------------------------------
G-------------6-6.--5-4.------------------------------------------------
D-4-4.--6-7.------------------------------------------------------------
A-----------------------------------------------------------------------
E-----------------------------------------------------------------------



Part 5
                    A                                   F#m       Bm
e-----9-7---5-----------------------------9-7---5-----------------------
B-5-----------7---5-------------------5-----------7---5-7.--7~----------
G-------------------6---6~----------------------------------------------
D-----------------------------------------------------------------------
A-----------------------------------------------------------------------
E-----------------------------------------------------------------------

                      E                                 A    D    A
e-----10-9---7------------------------------9---7-9---7-5~--------------
B-7------------10---7-9---9~--------------9-----------------------------
G-------------------------------------9---------------------------------
D-----------------------------------------------------------------------
A-----------------------------------------------------------------------
E-----------------------------------------------------------------------

                    A                                   F#m        Bm
e-----9-7---5-----------------------------9-7---5-----------------------
B-5-----------7---5-------------------5-----------7---5-7.--7~----------
G-------------------6---6~----------------------------------------------
D-----------------------------------------------------------------------
A-----------------------------------------------------------------------
E-----------------------------------------------------------------------

                      E                                 A    F7 E7  A
e-----10-9---7------------------------------9---7-9---7-5~----------5~--
B-7------------10---7-9---9~--------------9-------------------------5~--
G-------------------------------------9-----------------------------6~--
D-------------------------------------------------------------------7~--
A-----------------------------------------------------------------------
E-----------------------------------------------------------------------