20150412

THE NIGHTRUNNERS IDYLLE TAB (GUITAR INSTRUMENTAL)


The Nightrunners - Idylle instrumental guitar cover played by Giorgio Zizzo
Easy guitar instrumental with backing track
Download the TAB under the video



THE NIGHTRUNNERS IDYLLE TAB


Part 1
                    A                                   F#m       Bm
e-----9-7---5-----------------------------9-7---5-----------------------
B-5-----------7---5-------------------5-----------7---5-7.--7~----------
G-------------------6---6~----------------------------------------------
D-----------------------------------------------------------------------
A-----------------------------------------------------------------------
E-----------------------------------------------------------------------

                      E                                 A    D    A
e-----10-9---7------------------------------9---7-9---7-5~--------------
B-7------------10---7-9.--9~--------------9-----------------------------
G-------------------------------------9---------------------------------
D-----------------------------------------------------------------------
A-----------------------------------------------------------------------
E-----------------------------------------------------------------------




                    A                                   F#m       Bm
e-----9-7---5-----------------------------9-7---5-----------------------
B-5-----------7---5-------------------5-----------7---5-7.--7~----------
G-------------------6---6~----------------------------------------------
D-----------------------------------------------------------------------
A-----------------------------------------------------------------------
E-----------------------------------------------------------------------

                      E                                 A    D    A
e-----10-9---7------------------------------9---7-9---7-5~--------------
B-7------------10---7-9---9~--------------9-----------------------------
G-------------------------------------9---------------------------------
D-----------------------------------------------------------------------
A-----------------------------------------------------------------------
E-----------------------------------------------------------------------



Part 2
                    D
e-5.--7-5.----7.--5-----------------------------------------------------
B-------------------7.--7.----------------------------------------------
G-----------------------------------------------------------------------
D-----------------------------------------------------------------------
A-----------------------------------------------------------------------
E-----------------------------------------------------------------------

          Dm          A
e-5-7.--5-8.--7-5.------------------------------------------------------
B-------------------7-5.--------5-------8.--7-5.------------------------
G---------------------------6.----6.------------------------------------
D-----------------------------------------------------------------------
A-----------------------------------------------------------------------
E-----------------------------------------------------------------------

                       B
e------7----------------------------------------------------------------
B-10.----10.--10-7.----7.--7.-------------------------------------------
G--------------------9--------------------------------------------------
D-----------------------------------------------------------------------
A-----------------------------------------------------------------------
E-----------------------------------------------------------------------

                       E7     F7     E7
e--------------9-9.--8-7------------------------------------------------
B-7-7.--9-10.-----------------------------------------------------------
G-----------------------------------------------------------------------
D-----------------------------------------------------------------------
A-----------------------------------------------------------------------
E-----------------------------------------------------------------------