20151030

DAVID LOCKE IMAGINE TAB (INSTRUMENTAL COVER OF JOHN LENNON'S SONG)


David Locke plays a smooth instrumental guitar cover of John Lennon's Imagine.
See the TAB under the video.



DAVID LOCKE IMAGINE TAB

PDF >>

Part 1

e-----------------------------------------------------------------------
B-----------------------------------------------------------------------
G-----------------------------------------------------------------------
D-----5---5~-----7/9---9-\-7~-------------------------------------------
A---7---7---------------------------------------------------------------
E-----------------------------------------------------------------------


e-----------------------------------------------------------------------
B-----------------------------------------------------------------------
G-----------------------------------------------------------------------
D----5---5.--5~-----7/9---9--\--7~--------------------------------------
A---x--7----------------------------------------------------------------
E-----------------------------------------------------------------------


e-----------------------------------------------------------------------
B-----------------------------------------------------------------------
G-----------------------------------------------------------------------
D----5-5.----5~-----7/9---9-\-7~----------------------------------------
A---x------7------------------------------------------------------------
E-----------------------------------------------------------------------




e-----------------------------------------------------------------------
B-----------------------------------------------------------------------
G-----------------------------------------------------------------------
D----5---5.-5.-7/9-----9\7~---------------------------------------------
A---x--7----------------------------------------------------------------
E-----------------------------------------------------------------------


e-----------------------------------------------------------------------
B-----------------------------------------------------------------------
G-----5---5~------7(9).--7(9).--7~----p5--------------------------------
D---7---x--------------------------------7.-----------------------------
A-----------------------------------------------------------------------
E-----------------------------------------------------------------------


e-----------------------------------------------------------------------
B-----------------------------------------------------------------------
G---3/4.-4~-----3/4~---h5.-5/7~-----------------------------------------
D-----------------------------------------------------------------------
A-----------------------------------------------------------------------
E-----------------------------------------------------------------------



Part 2

e-----------------------------------------------------------------------
B-----------------------------------------------------------------------
G-----------------------------------------------------------------------
D-----5---5~-----7/9---9--\7~-----------7-8-9--\5-----------------------
A---7---7------------------------------x--------------------------------
E-------------------------------------x---------------------------------


e-----------------------------------------------------------------------
B-----------------------------------------------------------------------
G-----------------------------------------------------------------------
D-----5---5~------7/9-----9\7~------------------------------------------
A----x--7---------------------------------------------------------------
E---x-------------------------------------------------------------------


e-----------------------------------------------------------------------
B-----------------------------------------------------------------------
G-----------------------------------------------------------------------
D-----5---5~-----7/9-----h10-9-7~-----------7-8h9--\5-------------------
A---7---7----------------------------------x----------------------------
E-----------------------------------------x-----------------------------


e-----------------------------------------------------------------------
B-----------------------------------------------------------------------
G-----------------------------------------------------------------------
D-----5---5~------7/9-----/10-\7~---------------------------------------
A----x--7---------------------------------------------------------------
E---x-------------------------------------------------------------------


e-----------------------------------------------------------------------
B-----------------------------------------------------------------------
G------5---5~------7(9).--7(9).--7~----p5-------------------------------
D---/7---7--------------------------------7.----------------------------
A-----------------------------------------------------------------------
E-----------------------------------------------------------------------


e-----------------------------------------------------------------------
B-------------------------------------------------8---------------------
G---3/4.-3/4~------4~---h5--5/7~-----------7(9).------(9)(7)p5----------
D-----------------x--------x--------------------------------------------
A-----------------------------------------------------------------------
E-----------------------------------------------------------------------



Part 3

e-----------------------------------------------------------------------
B-----------------------------------------------------------------------
G---------5.--4h5p4---------4-5.--5-------------------------------------
D---x-7.------------7-----7---------7p5~-------h6~----------------------
A-----------------------------------------------------------------------
E-----------------------------------------------------------------------


e-----------------------------------------------------------------------
B-----------------------------------------------------------------------
G------5.--4.--4--------------------------------------------------------
D---/7-------------5--/7.-----------------------------------------------
A----------------0--------5/7------\5\3.--------------------------------
E-----------------------------------------------------------------------


e-----------------------------------------------------------------------
B-----------------------------------------------------------------------
G---------5.--4--h5p4------4.--5---5------------------------------------
D---5/7.-------------7p5.------------7p5~-----h6~-----------------------
A-----------------------------------------------------------------------
E-----------------------------------------------------------------------


e-----------------------------------------------------------------------
B-----------------------------------------------------------------------
G------5.--7--h9p7p5~----7.--9.--5~-------------------------------------
D---/7------------------------------------------------------------------
A-----------------------------------------------------------------------
E-----------------------------------------------------------------------



Part 4

e-----------------------------------------------------------------------
B-----------------------------------------------------------------------
G-----12----12~------14(16).--14(16).--14~------------------------------
D---x----14-------------------------------------------------------------
A-----------------------------------------------------------------------
E-----------------------------------------------------------------------


e-----------------------------------------------------------------------
B------------------------------12-13.-----------------------------------
G-------12----12~---14(16)-------------14~------------------------------
D---/14----14-----------------------------------------------------------
A-----------------------------------------------------------------------
E-----------------------------------------------------------------------


e-----------------------------------------------------------------------
B-----------------------------------------------------------------------
G-----12-12.--12.--12~------14(16)------(16)(14)~-----------------------
D----x------------------------------------------------------------------
A---x-------------------------------------------------------------------
E-----------------------------------------------------------------------


e-----------------------------------------------------------------------
B------------------------------------12-13------------------------------
G-----12-12----12~------14(16)-------------14~------p12.----------------
D----x------14----------------------------------------------------------
A---x-------------------------------------------------------------------
E-----------------------------------------------------------------------


e-----------------------------------------------------------------------
B-----------------------------------------------------------------------
G---12------------------------------------------------------------------
D---12h14.--12.--12h14p12\10--10~---------------------------------------
A---------------------------12------------------------------------------
E-----------------------------------------------------------------------


e-----------------------------------------------------------------------
B---------13----13~------15(17)-----15(17).--15~----p13-----------------
G---12/14----14---------x-------------------------------14.-------------
D----------------------x------------------------------------------------
A-----------------------------------------------------------------------
E-----------------------------------------------------------------------


e-----------------------------------------------15----------------------
B-----12-12~------12---13-15~----------15(17).-------(17)(15)p13~-------
G----x------------------------------------------------------------------
D---x-------------------------------------------------------------------
A-----------------------------------------------------------------------
E-----------------------------------------------------------------------



Part 5

e-----------------------------------------------------------------------
B-----------13.--12-h13p12------------12-13.--13------------------------
G---12h14.----------------14~------14------------14p12~------h13~-------
D-----------------------------------------------------------------------
A-----------------------------------------------------------------------
E-----------------------------------------------------------------------


e-----------------------------------------------------------------------
B---------13-12-h13p12--------------------------------------------------
G---12/14-------------14-12--h14----------------------------------------
D--------------------------------12/14~------\--------------------------
A-----------------------------------------------------------------------
E-----------------------------------------------------------------------


e-----------------------------------------------------------------------
B-------13.--13-15-12--h13p12---------12.--13.--13----------------------
G---/14----------------------14~-------------------14p12~---------------
D-----------------------------------------------------------------------
A-----------------------------------------------------------------------
E-----------------------------------------------------------------------


e-----------------------------------------------------------------------
B----------------12.-15.-13~--------------------------------------------
G---13~-------13--------------------------------------------------------
D----------14-----------------------------------------------------------
A-----------------------------------------------------------------------
E-----------------------------------------------------------------------


e-----------------------------------------------------------------------
B-------13.--15--h17p15p13~-----15.--17p13-13~--------------------------
G---/14-----------------------------------------------------------------
D-----------------------------------------------------------------------
A-----------------------------------------------------------------------
E-----------------------------------------------------------------------