20151030

DAVID LOCKE IMAGINE TAB (INSTRUMENTAL ELECTRIC GUITAR TAB)


John Lennon - Imagine smooth instrumental guitar cover by David Locke
It's played in standard tuning with backing track
Download the TAB under the video



JOHN LENNON IMAGINE ELECTRIC GUITAR TAB


Part 1

e-----------------------------------------------------------------------
B-----------------------------------------------------------------------
G-----------------------------------------------------------------------
D-----5---5~-----7/9---9-\-7~-------------------------------------------
A---7---7---------------------------------------------------------------
E-----------------------------------------------------------------------


e-----------------------------------------------------------------------
B-----------------------------------------------------------------------
G-----------------------------------------------------------------------
D----5---5.--5~-----7/9---9--\--7~--------------------------------------
A---x--7----------------------------------------------------------------
E-----------------------------------------------------------------------


e-----------------------------------------------------------------------
B-----------------------------------------------------------------------
G-----------------------------------------------------------------------
D----5-5.----5~-----7/9---9-\-7~----------------------------------------
A---x------7------------------------------------------------------------
E-----------------------------------------------------------------------



e-----------------------------------------------------------------------
B-----------------------------------------------------------------------
G-----------------------------------------------------------------------
D----5---5.-5.-7/9-----9\7~---------------------------------------------
A---x--7----------------------------------------------------------------
E-----------------------------------------------------------------------


e-----------------------------------------------------------------------
B-----------------------------------------------------------------------
G-----5---5~------7(9).--7(9).--7~----p5--------------------------------
D---7---x--------------------------------7.-----------------------------
A-----------------------------------------------------------------------
E-----------------------------------------------------------------------


e-----------------------------------------------------------------------
B-----------------------------------------------------------------------
G---3/4.-4~-----3/4~---h5.-5/7~-----------------------------------------
D-----------------------------------------------------------------------
A-----------------------------------------------------------------------
E-----------------------------------------------------------------------



Part 2

e-----------------------------------------------------------------------
B-----------------------------------------------------------------------
G-----------------------------------------------------------------------
D-----5---5~-----7/9---9--\7~-----------7-8-9--\5-----------------------
A---7---7------------------------------x--------------------------------
E-------------------------------------x---------------------------------


e-----------------------------------------------------------------------
B-----------------------------------------------------------------------
G-----------------------------------------------------------------------
D-----5---5~------7/9-----9\7~------------------------------------------
A----x--7---------------------------------------------------------------
E---x-------------------------------------------------------------------


e-----------------------------------------------------------------------
B-----------------------------------------------------------------------
G-----------------------------------------------------------------------
D-----5---5~-----7/9-----h10-9-7~-----------7-8h9--\5-------------------
A---7---7----------------------------------x----------------------------
E-----------------------------------------x-----------------------------


e-----------------------------------------------------------------------
B-----------------------------------------------------------------------
G-----------------------------------------------------------------------
D-----5---5~------7/9-----/10-\7~---------------------------------------
A----x--7---------------------------------------------------------------
E---x-------------------------------------------------------------------


e-----------------------------------------------------------------------
B-----------------------------------------------------------------------
G------5---5~------7(9).--7(9).--7~----p5-------------------------------
D---/7---7--------------------------------7.----------------------------
A-----------------------------------------------------------------------
E-----------------------------------------------------------------------


e-----------------------------------------------------------------------
B-------------------------------------------------8---------------------
G---3/4.-3/4~------4~---h5--5/7~-----------7(9).------(9)(7)p5----------
D-----------------x--------x--------------------------------------------
A-----------------------------------------------------------------------
E-----------------------------------------------------------------------



Part 3

e-----------------------------------------------------------------------
B-----------------------------------------------------------------------
G---------5.--4h5p4---------4-5.--5-------------------------------------
D---x-7.------------7-----7---------7p5~-------h6~----------------------
A-----------------------------------------------------------------------
E-----------------------------------------------------------------------


e-----------------------------------------------------------------------
B-----------------------------------------------------------------------
G------5.--4.--4--------------------------------------------------------
D---/7-------------5--/7.-----------------------------------------------
A----------------0--------5/7------\5\3.--------------------------------
E-----------------------------------------------------------------------