20151017

GER SANDERS KEKASIH KU TAB (ROB BOEKHOLT)


Ger Sanders plays Kekasih Ku (My Love), an instrumental guitar song.
Original song by Rob Boekholt.
See the TAB under the video.



GER SANDERS KEKASIH KU TAB

PDF >>

Part 1

e---------9-------------------------------------------------------------
B-------------------9-12-10---------------------------------------------
G---9-------------------------------------------------------------------
D-----------------------------------------------------------------------
A-----------------------------------------------------------------------
E-----------------------------------------------------------------------


e-----------------------9-----------------------------------------------
B---9-10-12---10-----10-----------9-9-----------------------------------
G---------------------------------------11------------------------------
D-----------------------------------------------------------------------
A-----------------------------------------------------------------------
E-----------------------------------------------------------------------


e-----------------------------------------------------------------------
B-----------12---10-------9---------------------------------------------
G---10---11-----------------11-11---9-----------------------------------
D-----------------------------------------------------------------------
A-----------------------------------------------------------------------
E-----------------------------------------------------------------------



e---------------4-------------------------------------------------------
B-------------5-----------5---------------------------------------------
G---4---6---7---------------7---6-----4---------------------------------
D-----------------------------------7-----7-----------------------------
A-----------------------------------------------------------------------
E-----------------------------------------------------------------------



Part 2

e-------5-7/9-7-----5-4-7---5------------------------9------------------
B-----5---------------------------------------------10------------------
G---6-------------------------------------------------------------------
D-----------------------------------------------------------------------
A-----------------------------------------------------------------------
E-----------------------------------------------------------------------


e---10---11-12---------------------12---11-10---------------------------
B---12---13-14---------------------14---13-12---------------------------
G-----------------------------------------------------------------------
D-----------------------------------------------------------------------
A-----------------------------------------------------------------------
E-----------------------------------------------------------------------


e-----------12-------10-------------------------------------------------
B-----------------------------------------------------------------------
G---11-12-13--12---11-------------------9-8-9-11/13---------------------
D-----------------------------------------------------------------------
A-----------------------------------------------------------------------
E-----------------------------------------------------------------------


e-----------------------------------------------------------------------
B-----------------------------------------------------------------------
G---11-11-11-10-9-------------------------------------------------------
D------------------------11---------------------------------------------
A---------------------12------------------------------------------------
E-----------------------------------------------------------------------



Part 3

e---12---11---10---8---9------------------------------------------------
B---14---13---12---9---10-----------------------------------------------
G-----------------------------------------------------------------------
D-----------------------------------------------------------------------
A-----------------------------------------------------------------------
E-----------------------------------------------------------------------


e------------------------------------12/14------------------------------
B-----------------------10h12.--10--------------------------------------
G---9h11.--9--/12-------------------------------------------------------
D-----------------------------------------------------------------------
A-----------------------------------------------------------------------
E-----------------------------------------------------------------------


e--------12-11-10-------------------------------------------------------
B---14--------------------------10h12p10--------------------------------
G------------------------------------------11---------------------------
D---------------------------------------------12------------------------
A-----------------------------------------------------------------------
E-----------------------------------------------------------------------


e---17-17---16-----14-14\12-----------14/16---14-14\12------------------
B-----------------------------------------------------------------------
G-----------------------------------------------------------------------
D-----------------------------------------------------------------------
A-----------------------------------------------------------------------
E-----------------------------------------------------------------------


e-----------------------------------------------------------------------
B------------12/15-------14-12-12\10-10---------------------------------
G---9h11p9-9------------------------------------------------------------
D-----------------------------------------------------------------------
A-----------------------------------------------------------------------
E-----------------------------------------------------------------------



Part 4

e---17---17.--16.--14---14\12-12----------------------------------------
B---19---19.--17.--15---15\14-14----------------------------------------
G-----------------------------------------------------------------------
D-----------------------------------------------------------------------
A-----------------------------------------------------------------------
E-----------------------------------------------------------------------


e---------17----------16-17-17/19-17------------------------------------
B-------17---------17---------------------------------------------------
G-----18----------------------------------------------------------------
D---19------------------------------------------------------------------
A-----------------------------------------------------------------------
E-----------------------------------------------------------------------


e---16----16----14\-----12------------12-14-15-16-----------------------
B------17----15------14-------------12----------------------------------
G---------------------------------13------------------------------------
D----------------------------13h14--------------------------------------
A-----------------------------------------------------------------------
E-----------------------------------------------------------------------


e---------16---16.----15-14-----------12---12.----11-10-----------------
B---14/17-17---17.----16-15-----------14---14.----13-12-----------------
G-----------------------------------------------------------------------
D-----------------------------------------------------------------------
A-----------------------------------------------------------------------
E-----------------------------------------------------------------------


e---8----9--------------------------------------------------------------
B---9---10--------------------------------------------------------------
G-----------------------------------------------------------------------
D-----------------------------------------------------------------------
A-----------------------------------------------------------------------
E-----------------------------------------------------------------------



Part 5

e---21-------16-19---17-------------------------------------------------
B-----------------------------14-14/17-------16-15-14-------------------
G-----------------------------------------------------------------------
D-----------------------------------------------------------------------
A-----------------------------------------------------------------------
E-----------------------------------------------------------------------


e----------------12-13-14-------------19-------17-16--------------------
B--------12-14-15-------------------19---------------19-----------------
G---13h14-------------------------19------------------------------------
D-------------------------------19--------------------------------------
A-----------------------------------------------------------------------
E-----------------------------------------------------------------------


e------17\--16-----14-14\12-12------------------------------------------
B---19------17-----15-15\14-14------------------------------------------
G-----------------------------------------------------------------------
D-----------------------------------------------------------------------
A-----------------------------------------------------------------------
E-----------------------------------------------------------------------


e---12---11-12/16---14\12-----------------------------------------------
B--------------------------------------12/15----------------------------
G-----------------------------9h11.--9----------------------------------
D-----------------------------------------------------------------------
A-----------------------------------------------------------------------
E-----------------------------------------------------------------------


e-----------------------------------------------------------------------
B---14-12-12\10-10------------------------------------------------------
G-----------------------------------------------------------------------
D-----------------------------------------------------------------------
A-----------------------------------------------------------------------
E-----------------------------------------------------------------------



Part 6

e-----------------------------------------------------------------------
B-----------------------------------------------------------------------
G---6---7---8---9-------------------------------------------------------
D-----------------------------------------------------------------------
A-----------------------------------------------------------------------
E-----------------------------------------------------------------------


e---9-------------------------------------------------------------------
B-------------------------12---10---------------------------------------
G-----------------------------------12---11-----------------------------
D-----------------------------------------------------------------------
A-----------------------------------------------------------------------
E-----------------------------------------------------------------------


e-----------------------------------------------------------------------
B-------------12---10------9--------------------------------------------
G---10---11------------------11-11---9----------------------------------
D-----------------------------------------------------------------------
A-----------------------------------------------------------------------
E-----------------------------------------------------------------------


e------------------------9----------------------------------------------
B-----------------9---10-----------10---12------------------------------
G----------9---11-------------------------------------------------------
D---11------------------------------------------------------------------
A-----------------------------------------------------------------------
E-----------------------------------------------------------------------


e-----------------------------------------------------------------------
B---9-10------9---------------------------------------------------------
G----------11-----9-----------------------------------------------------
D-------------------12---9----------------------------------------------
A-----------------------------------------------------------------------
E-----------------------------------------------------------------------


e-----------4-5-4h5p4---4-----------------------------------------------
B-----5-7.------------7---7-5-------------------------------------------
G---6-------------------------------------------------------------------
D-----------------------------------------------------------------------
A-----------------------------------------------------------------------
E-----------------------------------------------------------------------



Part 7

e---------12---------17-17/21-21-----19-17-16---14----------------------
B-------14--------------------------------------------------------------
G-----14----------------------------------------------------------------
D---14------------------------------------------------------------------
A-----------------------------------------------------------------------
E-----------------------------------------------------------------------


e---------19-17-16---------------------17\--16-----14-14\12-12----------
B-------19---------19---------------19------17-----15-15\14-14----------
G-----19----------------------------------------------------------------
D---19------------------------------------------------------------------
A-----------------------------------------------------------------------
E-----------------------------------------------------------------------


e---16-17-19-17-16------------------------------------------------------
B------------------19-19---17-------------------------------------------
G-----------------------------------------------------------------------
D-----------------------------------------------------------------------
A-----------------------------------------------------------------------
E-----------------------------------------------------------------------


e-----------------------------------------------------------------------
B------------12/15---------14-12-12\10-10-------------------------------
G---9h11p9-9------------------------------------------------------------
D-----------------------------------------------------------------------
A-----------------------------------------------------------------------
E-----------------------------------------------------------------------


e------9---------7-5----------------------14-12.------------------------
B---10-----------8-7-7----------7---------15-14.--14--------------------
G--------------------7--------7-------------------14--------------------
D---------------------------7-------------------------------------------
A-----------------------------------------------------------------------
E-----------------------------------------------------------------------


e-------------------14---------12-10--------8-8------9------------------
B-----------------15-----------14-12--------9-9-----10------------------
G---9h11p9----9-14------------------------------------------------------
D----------11-----------------------------------------------------------
A-----------------------------------------------------------------------
E-----------------------------------------------------------------------