20151017

ROB BOEKHOLT KEKASIH KU GUITAR TAB (GUITAR INSTRUMENTAL)


Rob Boekholt - Kekasih Ku (My Love) instrumental guitar cover by Ger Sanders
Nice guitar instrumental with backing track
Download the TAB under the video



KEKASIH KU TAB


Part 1

e---------9-------------------------------------------------------------
B-------------------9-12-10---------------------------------------------
G---9-------------------------------------------------------------------
D-----------------------------------------------------------------------
A-----------------------------------------------------------------------
E-----------------------------------------------------------------------


e-----------------------9-----------------------------------------------
B---9-10-12---10-----10-----------9-9-----------------------------------
G---------------------------------------11------------------------------
D-----------------------------------------------------------------------
A-----------------------------------------------------------------------
E-----------------------------------------------------------------------


e-----------------------------------------------------------------------
B-----------12---10-------9---------------------------------------------
G---10---11-----------------11-11---9-----------------------------------
D-----------------------------------------------------------------------
A-----------------------------------------------------------------------
E-----------------------------------------------------------------------



e---------------4-------------------------------------------------------
B-------------5-----------5---------------------------------------------
G---4---6---7---------------7---6-----4---------------------------------
D-----------------------------------7-----7-----------------------------
A-----------------------------------------------------------------------
E-----------------------------------------------------------------------



Part 2

e-------5-7/9-7-----5-4-7---5------------------------9------------------
B-----5---------------------------------------------10------------------
G---6-------------------------------------------------------------------
D-----------------------------------------------------------------------
A-----------------------------------------------------------------------
E-----------------------------------------------------------------------


e---10---11-12---------------------12---11-10---------------------------
B---12---13-14---------------------14---13-12---------------------------
G-----------------------------------------------------------------------
D-----------------------------------------------------------------------
A-----------------------------------------------------------------------
E-----------------------------------------------------------------------


e-----------12-------10-------------------------------------------------
B-----------------------------------------------------------------------
G---11-12-13--12---11-------------------9-8-9-11/13---------------------
D-----------------------------------------------------------------------
A-----------------------------------------------------------------------
E-----------------------------------------------------------------------


e-----------------------------------------------------------------------
B-----------------------------------------------------------------------
G---11-11-11-10-9-------------------------------------------------------
D------------------------11---------------------------------------------
A---------------------12------------------------------------------------
E-----------------------------------------------------------------------