20160830

FLEETWOOD MAC NEED YOUR LOVE SO BAD TAB (INSTRUMENTAL GUITAR COVER BY TERRY R)

Terry R plays Fleetwood Mac's Need Your Love So Bad.
Great instrumental guitar cover.
TAB under the video.



NEED YOUR LOVE SO BAD INSTRUMENTAL TAB


Part 1

e-----------------------------------------------------------------------
B------------10.--12(14)---(12)(14)------------(12)---------------------
G---9-/-11--------------------------------------------------------------
D-----------------------------------------------------------------------
A-----------------------------------------------------------------------
E-----------------------------------------------------------------------


e-----------------------------------------------------------------------
B------------10h12p10--10~----------------------------------------------
G---9-/-11-----------11-------------------------------------------------
D-----------------------------------------------------------------------
A-----------------------------------------------------------------------
E-----------------------------------------------------------------------


e-----------------------------------------------------------------------
B--------------10---12--10~---------------------------------------------
G---9---9/11----------11------------------------------------------------
D-----------------------------------------------------------------------
A-----------------------------------------------------------------------
E-----------------------------------------------------------------------



e-----------------------------------------------------------------------
B-----10--13(15)-----(15)13---10~------10-12(14)---(12)p10~-------------
G---11--11---------------------------11---------------------------------
D-----------------------------------------------------------------------
A-----------------------------------------------------------------------
E-----------------------------------------------------------------------


e---------------------------12(14)--------------------------------------
B---12(14)---(14)-------------------------------------------------------
G-----------------------------------------------------------------------
D-----------------------------------------------------------------------
A-----------------------------------------------------------------------
E-----------------------------------------------------------------------


e-----------------------------------------------------------------------
B---12(14)---(12)p10h12~-----------------10h12p10--10h12(14)---10~------
G-------------------------------9-/-11---11------11---------------------
D-----------------------------------------------------------------------
A-----------------------------------------------------------------------
E-----------------------------------------------------------------------


e----------------10--11--12---------------------------------------------
B---10-/-13------12--13--14---------------------------------------------
G---11-/-14-------------------------------------------------------------
D-----------------------------------------------------------------------
A-----------------------------------------------------------------------
E-----------------------------------------------------------------------


Part 2

e-----------------------------------------------------------------------
B-----------------------------------------------------------------------
G---7(9)-------(7)(9)(7)p6~---------------------------------------------
D-----------------------------------------------------------------------
A-----------------------------------------------------------------------
E-----------------------------------------------------------------------


e-----------------------------------------------------------------------
B-----------------------------------------------------------------------
G--------6.--7p6--------------------------------------------------------
D---/7-----------9-7~---------------------------------------------------
A-----------------------------------------------------------------------
E-----------------------------------------------------------------------


e------------5----------------------------------------------------------
B----------5---5---8(10)-----8-5~---------------------------------------
G--------6--------------------------------------------------------------
D---/7------------------------------------------------------------------
A-----------------------------------------------------------------------
E-----------------------------------------------------------------------


e-----------------------------------------------------------------------
B-----------------------------------------------------------------------
G---7(9)-----7.--6.--7p6--------------------------/7~---p6~-------------
D------------------------7~-------------7~------------------------------
A----------------------------------/7-----------------------------------
E-----------------------------------------------------------------------


e-----------------------------------------------------------------------
B---------10---12p10-12(14)-------12(14)(12)p10.-12(14).--10~-----------
G---/11-----------------------------------------------------------------
D-----------------------------------------------------------------------
A-----------------------------------------------------------------------
E-----------------------------------------------------------------------


e----------5.-----------------------------------------------------------
B---5-------------------------------------------------------------------
G---7(9)-----------------7(9)---(7)p6-----------------------------------
D-------------------------------------7~--------------------------------
A-----------------------------------------------/7~---6h7~--------------
E-----------------------------------------------------------------------


Part 3

e-----------------------------------------------------------------------
B---12(14)---(12)(14)------------------10---12.-12(14)---(12)p10~-------
G--------------------------------/11------------------------------------
D-----------------------------------------------------------------------
A-----------------------------------------------------------------------
E-----------------------------------------------------------------------


e-----------------------------------------------------------------------
B---------10---12p10-12(13)-(12)p10h12(14)------------------------------
G---/11-----------------------------------------------------------------
D-----------------------------------------------------------------------
A-----------------------------------------------------------------------
E-----------------------------------------------------------------------


e-----------------------------------------------------------------------
B---------8---10-----10~------------------------------------------------
G---7/9----------9------------------------------------------------------
D-----------------------------------------------------------------------
A-----------------------------------------------------------------------
E-----------------------------------------------------------------------


e-----------------------------------------------------------------------
B---------10---12p10-12(14)---(12)(14)----------------------------------
G---/11-----------------------------------------------------------------
D-----------------------------------------------------------------------
A-----------------------------------------------------------------------
E-----------------------------------------------------------------------


e-----------------------------------------------------------------------
B-----------------------------------------------------------------------
G---7(9)---7.--6.--7p6-7(9).---------7(9)---(7)(9)-----(7)p6------------
D------------------------------------------------------------7~---------
A-----------------------------------------------------------------------
E-----------------------------------------------------------------------


e-----------------------------------------------------------------------
B-----------------------------------------------------------------------
G-----------------------------------------------------------------------
D----------7~------7.---------------------------------------------------
A---/7-------------7.---------------------------------------------------
E-----------------------------------------------------------------------


Part 4

e-----------------------------------------------------------------------
B-----------------------------------------------------------------------
G---5h6~--------------------------------2.-4p2-4(5)---(4)p2~------------
D-------------7p5------------------/4-----------------------------------
A-----------------7~----------------------------------------------------
E-----------------------------------------------------------------------


e-----------------------------------------------------------------------
B-----------------------------------------------------------------------
G--------2.--4p2-4(5)---(4)(6)------------------------------------------
D---/4------------------------------------------------------------------
A-----------------------------------------------------------------------
E-----------------------------------------------------------------------


e-----------------------------------------------------------------------
B--------7-------5---------------7-----5~-------------------------------
G---/6---------6------------/6-----6------------------------------------
D-----------------------------------------------------------------------
A-----------------------------------------------------------------------
E-----------------------------------------------------------------------


e-----------------------------------------------------------------------
B---------10~-----------------------------------------------------------
G---/11-----------------------------------------------------------------
D-----------------------------------------------------------------------
A-----------------------------------------------------------------------
E-----------------------------------------------------------------------


e-----------------------------------------------------------------------
B---------10------12(14)-------(12)p10--10~-----h12p10h12~--------------
G---/11-------------------------------11--------------------------------
D-----------------------------------------------------------------------
A-----------------------------------------------------------------------
E-----------------------------------------------------------------------


e-----------------------------------------------------------------------
B---------10------------------------------------------------------------
G---/11--------11---9~--------------------------------------------------
D-----------------------------------------------------------------------
A-----------------------------------------------------------------------
E-----------------------------------------------------------------------


Part 5

e-----------------------------------------------------------------------
B-----------------------------------------------------------------------
G---7(9)-----(7)(9)(7)p6~-----------------------------------------------
D-----------------------------------------------------------------------
A-----------------------------------------------------------------------
E-----------------------------------------------------------------------


e-----------------------------------------------------------------------
B-----------------------------------------------------------------------
G---7-p-6---------------------------------------------------------------
D-----------9---7~------------------------------------------------------
A-----------------------------------------------------------------------
E-----------------------------------------------------------------------


e------------5----------------------------------------------------------
B----------5---5.--8(10)-----8---5.--8p5~-------------------------------
G--------6--------------------------------------------------------------
D---/7------------------------------------------------------------------
A-----------------------------------------------------------------------
E-----------------------------------------------------------------------


e-----------------------------------------------------------------------
B-----------------------------------------------------------------------
G---7(9)---7.--6.--7-p5-h6----------------------------------------------
D--------------------------7.-5h7~--------------------------------------
A-----------------------------------------------------------------------
E-----------------------------------------------------------------------


e-----------------------------------------------------------------------
B-----------------------------------------------------------------------
G---7(9)---(7)(9)-------(7)-5~---h6-------------------------------------
D-----------------------------------7.----------------------------------
A-----------------------------------------------------------------------
E-----------------------------------------------------------------------


e-----------------------------------------------------------------------
B-----------------------------------------------------------------------
G--------2~------------4(5)-----(4)(6).-4-2.--4p2~----------------------
D---/4------------------------------------------------------------------
A-----------------------------------------------------------------------
E-----------------------------------------------------------------------


e-----------------------------------------------------------------------
B-----------------------------------------------------------------------
G----------2-----4(6)---(4)p2-----2~------------------------------------
D---/4------------------------4----------------/4---2~------------------
A-----------------------------------------------------------------------
E-----------------------------------------------------------------------


Part 6

e-----------------------------------------------------------------------
B---12(14)---(12)(14)---------------------------------------------------
G-----------------------------------------------------------------------
D-----------------------------------------------------------------------
A-----------------------------------------------------------------------
E-----------------------------------------------------------------------


e-----------------------------------------------------------------------
B---12(14)-(12)p10.--12p10.--12(14)-(12)p10~----------------------------
G-----------------------------------------------------------------------
D-----------------------------------------------------------------------
A-----------------------------------------------------------------------
E-----------------------------------------------------------------------


e------------10-12.-----------------------------------------------------
B---12(14)----------12(14)---10~----------------------------------------
G-----------------------------------------------------------------------
D-----------------------------------------------------------------------
A-----------------------------------------------------------------------
E-----------------------------------------------------------------------


e-------12(14)----------------------------------------------------------
B---10.------------(14)-(12)-10h12-(14)-(12)p10~------------------------
G-----------------------------------------------------------------------
D-----------------------------------------------------------------------
A-----------------------------------------------------------------------
E-----------------------------------------------------------------------


e-----------------------------------------------------------------------
B---12--\-12---12(14)---(12)(14)----------------------------------------
G-----------------------------------------------------------------------
D-----------------------------------------------------------------------
A-----------------------------------------------------------------------
E-----------------------------------------------------------------------


e---12(14)-----12.--10.--12p10------------------------------------------
B------------------------------13(15)-----10----------------------------
G-------------------------------------------11-9~-----------------------
D-----------------------------------------------------------------------
A-----------------------------------------------------------------------
E-----------------------------------------------------------------------


e-----------------------------------------------------------------------
B---------10---12---10~-------------------10------------10~-------------
G---/11-----------------------------/11------------11\9-----------------
D-----------------------------------------------------------------------
A-----------------------------------------------------------------------
E-----------------------------------------------------------------------


e-----------------------------------------------------------------------
B-----------------------------------------------------------------------
G---7(9)---(7)p6h7/9~---------------------------------------------------
D-----------------------------------------------------------------------
A-----------------------------------------------------------------------
E-----------------------------------------------------------------------