20160830

FLEETWOOD MAC NEED YOUR LOVE SO BAD TAB (INSTRUMENTAL GUITAR TABS)

Fleetwood Mac - Need Your Love So Bad instrumental guitar cover by Terry R
Awesome blues guitar instrumental with backing track
Download the TAB under the video



NEED YOUR LOVE SO BAD INSTRUMENTAL TAB


Part 1

e-----------------------------------------------------------------------
B------------10.--12(14)---(12)(14)------------(12)---------------------
G---9-/-11--------------------------------------------------------------
D-----------------------------------------------------------------------
A-----------------------------------------------------------------------
E-----------------------------------------------------------------------


e-----------------------------------------------------------------------
B------------10h12p10--10~----------------------------------------------
G---9-/-11-----------11-------------------------------------------------
D-----------------------------------------------------------------------
A-----------------------------------------------------------------------
E-----------------------------------------------------------------------


e-----------------------------------------------------------------------
B--------------10---12--10~---------------------------------------------
G---9---9/11----------11------------------------------------------------
D-----------------------------------------------------------------------
A-----------------------------------------------------------------------
E-----------------------------------------------------------------------



e-----------------------------------------------------------------------
B-----10--13(15)-----(15)13---10~------10-12(14)---(12)p10~-------------
G---11--11---------------------------11---------------------------------
D-----------------------------------------------------------------------
A-----------------------------------------------------------------------
E-----------------------------------------------------------------------


e---------------------------12(14)--------------------------------------
B---12(14)---(14)-------------------------------------------------------
G-----------------------------------------------------------------------
D-----------------------------------------------------------------------
A-----------------------------------------------------------------------
E-----------------------------------------------------------------------


e-----------------------------------------------------------------------
B---12(14)---(12)p10h12~-----------------10h12p10--10h12(14)---10~------
G-------------------------------9-/-11---11------11---------------------
D-----------------------------------------------------------------------
A-----------------------------------------------------------------------
E-----------------------------------------------------------------------


e----------------10--11--12---------------------------------------------
B---10-/-13------12--13--14---------------------------------------------
G---11-/-14-------------------------------------------------------------
D-----------------------------------------------------------------------
A-----------------------------------------------------------------------
E-----------------------------------------------------------------------


Part 2

e-----------------------------------------------------------------------
B-----------------------------------------------------------------------
G---7(9)-------(7)(9)(7)p6~---------------------------------------------
D-----------------------------------------------------------------------
A-----------------------------------------------------------------------
E-----------------------------------------------------------------------


e-----------------------------------------------------------------------
B-----------------------------------------------------------------------
G--------6.--7p6--------------------------------------------------------
D---/7-----------9-7~---------------------------------------------------
A-----------------------------------------------------------------------
E-----------------------------------------------------------------------


e------------5----------------------------------------------------------
B----------5---5---8(10)-----8-5~---------------------------------------
G--------6--------------------------------------------------------------
D---/7------------------------------------------------------------------
A-----------------------------------------------------------------------
E-----------------------------------------------------------------------


e-----------------------------------------------------------------------
B-----------------------------------------------------------------------
G---7(9)-----7.--6.--7p6--------------------------/7~---p6~-------------
D------------------------7~-------------7~------------------------------
A----------------------------------/7-----------------------------------
E-----------------------------------------------------------------------